Song: The Sun - Must Be You

Band: Misc Unsigned Bands

Rating: -1 +1 Views: 280

THis is a pretty good song, and i couldnt find it anywhere on the ineternet.
It's good though, and i wnated to learn this song, so here it is.
BTW, this is my first tab, so forgive me if i get a few things or symbols wrong.
Just let me know so i can fix them.  Have fun!

Artist:  The Sun
Album:   Blame it on the Youth
Song:    Must be You



    

Key:
any #= fret to be played
h-hammer on
p-pull off
b-bend to sound of # after the b
/- slide up
\- slide down
~- let ring

Guitar 1
E|-0-9-7-0-4-0-7-0-4-2-0-2-0---0-2-|
B|---------------------------0-----|  Plays through the chorus, over
G|---------------------------------|  Guitar 2
D|---------------------------------|
A|---------------------------------|
E|---------------------------------|

Guitar 2
E|--------------------------------------|
B|--------------------2-2---2--2-222222-|
G|--------------------2-2---2--2-222222-|
D|-2-2---2--2-22222---2-2---2--2-222222-|Plays until Chours under guitar 1
A|-2-2---2--2-22222---------------------|Listen to song for exact timing.
E|--------------------------------------|



    

Chorus

Guitar 1 repeat above for entire chorus

Guitar 2
E|---------------------------------|
B|---------------------------------|
G|---------------------------------|
D|-2-2-2-2-2-2-2-2-7-7-7-7-7-7-7-7-| X2
A|-2-2-2-2-2-2-2-2-7-7-7-7-7-7-7-7-|
E|-----------------5-5-5-5-5-5-5-5-|

3- 6964422

After Chorus:

Guitar 1
E|--------------------------|
B|--------------------------|
G|--------------------------|
D|-6-6-9-9-6-6---4-4-2-2-2--|
A|--------------------------|
E|--------------------------|

E|--------------------------|
B|--------------------------|
G|--------------------------|
D|-6-6-9-9-6-6---1-1--------|
A|-------------------4-4-4--|
E|--------------------------|

E|--------------------------|
B|--------------------------|
G|--------------------------|
D|-6-6-9-9-6-6---4-4-2-2-2--|
A|--------------------------|
E|--------------------------|

E|--------------------------|
B|--------------------------|
G|--------------------------|
D|-6-6-9-9-6-6---1-1--------|
A|-------------------4-4-4--|
E|--------------------------|

Guitar 2
E|--------------------------------------|
B|--------------------2-2---2--2-222222-|
G|--------------------2-2---2--2-222222-|  Play this for the rest of
D|-2-2---2--2-22222---2-2---2--2-222222-|  the song.  Not too fun, but
A|-2-2---2--2-22222---------------------|  necessary for the rhythm
E|--------------------------------------|

After that it goes:
(When i took my first drink of alchohol)
Guitar 1
E|-4/5\4-7-4/5-0-2-0------2-2-2h3b4-|
B|-------------------2~-------------|
G|----------------------------------| X2
D|----------------------------------|
A|----------------------------------|
E|----------------------------------|

E|------------------------------------------------|
B|--5-5-5-4-4-4-0-0-5-5-5-4-4-4-0-0------5-5-5h7~-|
G|----------------------------------6~------------| X2
D|------------------------------------------------|
A|------------------------------------------------|
E|------------------------------------------------|

E|-4/5\4-7-4/5-0-2-0------2-2-2h3b4-|
B|-------------------2~-------------|
G|----------------------------------| X2
D|----------------------------------|
A|----------------------------------|
E|----------------------------------|

E|----------------------------------|
B|--5-5-5-4-4-4-0-0-5-5-5-4-4-4-0-0-|
G|----------------------------------| X4
D|----------------------------------|
A|----------------------------------|
E|----------------------------------|

E|--------------------------|
B|--------------------------|
G|--------------------------|
D|-6-6-9-9-6-6---4-4-2-2-2--|
A|--------------------------|
E|--------------------------|

E|--------------------------|
B|--------------------------|
G|--------------------------|
D|-6-6-9-9-6-6---1-1--------|
A|-------------------4-4-4--|
E|--------------------------|

E|--------------------------|
B|--------------------------|
G|--------------------------|
D|-6-6-9-9-6-6---4-4-2-2-2--|
A|--------------------------|
E|--------------------------|

E|----------------------------|
B|----------------------------|
G|----------------------------|
D|-6-6-9-9-6-6---1-1-------2~-| (end on 2, and let ring)
A|-------------------4-4-4----|
E|----------------------------|
Guitar 2 ends on 000220, and lets ring, too.

Close panel

Help Rate This Tab by Voting Up or Down

Vote Up Vote Down
Rating: -1 +1

Other Songs Like This

x

Copyright © 2017