Song: Super Blues In G

Band: Misc Unsigned Bands

Rating: -1 +1 Views: 178



    

																							     SONG NAME - Band Name
-------------------------------------------------------------------------------
Tabbed by:
Email:

Tuning:stanard

e|-----------------------------------------------------------------------------|
B|-----------------------------------------------------------------------------|
G|-----------------------------------------------------------------------------|
D|------3h5p3---3---------3h5p3-----3h5p3-----3-------3h5p3--------------------|
A|-3h5--------5---5--3h5---------3h5--------5---5--3h5-------------------------|
E|-----------------------------------------------------------------------------|



    

e|---------------------------------------------------------------------------|
B|---------------------------------------------------------------------------|
G|-----3h5p3---3---------3h5p3-----------------------------------------------|
D|-3h5-------5---5--3h5-------------3h5p3--5---------3h5p3-------------------|
A|------------------------------3h5-------3-3---3h5--------------------------|
E|---------------------------------------------------------------------------|

e|---------------------------------------------------------------------------|
B|---------------------------------------------------------------------------|
G|-----5h7p5----5/3------3h5p3-----------------------------------------------|
D|-5h7-------7-------3h5-------------3h5p3-----3-----------3h5p3-------------|
A|-------------------------------3h5--------5-----5---3h5--------------------|
E|---------------------------------------------------------------------------|
solo
e|-t12p8p5t12p8p5t12p8p5t12p8p5t13p10p8t13p10p8t13p10p8t13p10p8-b13-(15)-15-

12-17-12-15-12----12----------------------------------------------------------|
B|-------------15----15-12---12-----------------------------------------------|
G|-------------------------14--14-12-+b14-(16)--------------------------------|
D|----------------------------------------------------------------------------|
A|----------------------------------------------------------------------------|
E|----------------------------------------------------------------------------|

outro
e|---------------------------------------------------------------------------|
B|---------------------------------------------------------------------------|
G|---------------------------------------------------------------------------|
D|---------------------------------------------------------------------------|
A|-7--77-77-77-77-77-77-7-5-2------------------------------------------------|
E|-5--55-55-55-55-55-55-5-3-0------------------------------------------------|


| \  slide down
| h  hammer-on
| p  pull-off
| +  pinched harmonic
===============================================================================

Close panel

Help Rate This Tab by Voting Up or Down

Vote Up Vote Down
Rating: -1 +1

Other Songs Like This

x

Copyright © 2019