Song: Rip - An Unsigned Contract Bass

Band: Misc Unsigned Bands

Rating: -1 +1 Views: 418



    

																				Verse
[-------------------------------------------------------------------]
[-------------------------------------------------------------------]Repeat 
[---000033334444-3430--000033334444-3430----000055554444666646-30---]  2x
[-------------------------------------------------------------------]

 Chorus

[---------3--------------|---------2-3--5--32-----------|-----------]
[-----2-3---3-2----------|(x2)-2-3------------3-2-2-4-2-|-First-----]
[-2-3-----------3-2-3-2--|------------------------------|--Riff-----]
[------------------------|------------------------------|---(x1)----]



    

Verse (x2)

During Guitar Solo

[--3-333-6-666-7-77-2-222----]
[----------------------------]
[--------------------------3-]
[----------------------------]

Intro (x1)

Outro

[-------------------------------------------------------------------]
[-------------------------------------------------------------------]
[---3-3/9- 99--77-99---Repeat--(x3)---------------------------------]
[-------------------------------------------------------------------]
  This was written and distributed by Cadoodle117, e-mail after playen
to tell me what you think. Its my first song so tell me what you think

Close panel

Help Rate This Tab by Voting Up or Down

Vote Up Vote Down
Rating: -1 +1

Other Songs Like This

x

Copyright © 2017