Song: Bears Eat Me - Fictional Friends Rhythm

Band: Misc Unsigned Bands

Rating: -1 +1 Views: 262



    

																				BEARS EAT ME
FICTIONAL FRIENDS
RHYTHM
DROP D

This song is easy as hell.

P = PALM MUTE



    

INTRO     2x
VERSE     2x
CHORUS 1  2x
CHORUS 2  2x
VERSE     2x
CHORUS 1  2x
BREAKDOWN 4x
CHORUS 2  2x
OUTRO     1x

INTRO 2x (SAME AS CHORUS 2)
|----------------------------------------------------------------|
|----------------------------------------------------------------|
|----------------------------------------------------------------|
|3-3-3-3-3-3-3-2-0-0-0-0-0-0-0-2-3-3-3-3-3-3-3-3-5-5-5-5-7-7-7-7-|
|3-3-3-3-3-3-3-2-0-0-0-0-0-0-0-2-3-3-3-3-3-3-3-3-5-5-5-5-7-7-7-7-|
|3-3-3-3-3-3-3-2-0-0-0-0-0-0-0-2-3-3-3-3-3-3-3-3-5-5-5-5-7-7-7-7-|LIGHT STRUM

VERSE 2x
|----------------------------------------------------------------|
|----------------------------------------------------------------|
|----------------------------------------------------------------|
|5-5-5-5-5-5-5-5-3-3-3-3-3-3-3-3-2-2-2-2-2-2-2-2-3-3-3-3-3-3-3-3-|
|5-5-5-5-5-5-5-5-3-3-3-3-3-3-3-3-2-2-2-2-2-2-2-2-3-3-3-3-3-3-3-3-|
|5-5-5-5-5-5-5-5-3-3-3-3-3-3-3-3-2-2-2-2-2-2-2-2-3-3-3-3-3-3-3-3-|
   |-----P-----|   |-----P-----| 

CHORUS 1 2x
|----------------------------------------------------------------|
|----------------------------------------------------------------|
|----------------------------------------------------------------|
|7-7-7-7-7-7-7-8-101010101010108-7-7-7-7-7-7-7-7-5---5---5-5-0---|
|7-7-7-7-7-7-7-8-101010101010108-7-7-7-7-7-7-7-7-5---5---5-5-0---|
|7-7-7-7-7-7-7-8-101010101010108-7-7-7-7-7-7-7-7-5---5---5-5-0---|
                                                             P

CHORUS 2 2x
|----------------------------------------------------------------|
|----------------------------------------------------------------|
|----------------------------------------------------------------|
|3-3-3-3-3-3-3-2-0-0-0-0-0-0-0-2-3-3-3-3-3-3-3-3-5-5-5-5-7-7-7-7-|
|3-3-3-3-3-3-3-2-0-0-0-0-0-0-0-2-3-3-3-3-3-3-3-3-5-5-5-5-7-7-7-7-|
|3-3-3-3-3-3-3-2-0-0-0-0-0-0-0-2-3-3-3-3-3-3-3-3-5-5-5-5-7-7-7-7-|LIGHT STRUM


VERSE 2x
|----------------------------------------------------------------|
|----------------------------------------------------------------|
|----------------------------------------------------------------|
|5-5-5-5-5-5-5-5-3-3-3-3-3-3-3-3-2-2-2-2-2-2-2-2-3-3-3-3-3-3-3-3-|
|5-5-5-5-5-5-5-5-3-3-3-3-3-3-3-3-2-2-2-2-2-2-2-2-3-3-3-3-3-3-3-3-|
|5-5-5-5-5-5-5-5-3-3-3-3-3-3-3-3-2-2-2-2-2-2-2-2-3-3-3-3-3-3-3-3-|
   |-----P-----|   |-----P-----| 

CHORUS 1 2x
|----------------------------------------------------------------|
|----------------------------------------------------------------|
|----------------------------------------------------------------|
|7-7-7-7-7-7-7-8-101010101010108-7-7-7-7-7-7-7-7-5---5---5-5-0---|
|7-7-7-7-7-7-7-8-101010101010108-7-7-7-7-7-7-7-7-5---5---5-5-0---|
|7-7-7-7-7-7-7-8-101010101010108-7-7-7-7-7-7-7-7-5---5---5-5-0---|
                                                             P

BREAKDOWN 4x
|--------------------------------|
|--------------------------------|
|------------------------------5-|
|--------------------------------|
|0-0-0-3-0-0-0-3-0-0-0-3-0-0-0-3-|
|0-0-0-3-0-0-0-3-0-0-0-3-0-0-0---|
 P P P   P P P   P P P   P P P

CHORUS 2 2x
|----------------------------------------------------------------|
|----------------------------------------------------------------|
|----------------------------------------------------------------|
|3-3-3-3-3-3-3-2-0-0-0-0-0-0-0-2-3-3-3-3-3-3-3-3-5-5-5-5-7-7-7-7-|
|3-3-3-3-3-3-3-2-0-0-0-0-0-0-0-2-3-3-3-3-3-3-3-3-5-5-5-5-7-7-7-7-|
|3-3-3-3-3-3-3-2-0-0-0-0-0-0-0-2-3-3-3-3-3-3-3-3-5-5-5-5-7-7-7-7-|LIGHT STRUM

OUTRO 1x
|--------|
|--------|
|--------|
|--------|
|33333333|
|33333333|
 PPPPPPPP

Close panel

Help Rate This Tab by Voting Up or Down

Vote Up Vote Down
Rating: -1 +1

Other Songs Like This

x

Copyright © 2019