Song: Alan Smith - Majestic Ruin Bass

Band: Misc Unsigned Bands

Rating: -1 +1 Views: 190



    

																				Uses a Five String 
tuning (A  D  G  C  F) low to high

Intro with drums Guitar comes in 2nd time  
|-----------------------------------| 
|-----------------------------------|
|-----------------------------------|
|-----------------------------------|
|--(0)-3-3--(0)-3-3-(0)--3113--00-00-|

the slide note at the end is sounded 
|------------------------------------------|
|------------------------------------------|
|---------------------------------3--------|
|-----------------------3-5--3-5---5--3/2--|
|-3-5--6-5----3-5-6-5----------------------|



    


Repeat x3
|-----------------------------------|
|-----------------------------------|
|---------------0-2-------0-2-------|       
|--2-22-3-0-00-------3---------3-2--|
|-----------------------------------|

Repeat x7
|-----------------------------------|
|-----------------------------------|
|-----------------------------------|       
|-00000-0-00000---3-2---------------|
|-----------------------------------|

After Ryan's and Jordan's solos the bass interlude kicks in
Repeat x3

|-------5-------3-2---2-----2---0----|
|-3h5-6---3h5-6--------320---32----|
|-----------------------------------|       
|-----------------------------------|
|-----------------------------------|

Outro Repeat x4
|-----------------------------------|
|-----------------------------------|
|-555-3-5-2-333-2-3-----------------|       
|-----------------------------------|
|-----------------------------------|

Close panel

Help Rate This Tab by Voting Up or Down

Vote Up Vote Down
Rating: -1 +1

Other Songs Like This

x

Copyright © 2017