Song: Ghost Town - Quarter Shadows Bass

Band: Misc Unsigned Bands

Rating: -1 +1 Views: 150



    

																							     Quarter Shadows - Ghost Town


Tabbed By : Hobbitstyle
e-mail: zekewhiting@yahoo.com



    

Tuning: GDAE

G|2-4-5-------------------3-3-----|
D|------2-4-5-----------------0---|
A|------------2-4-5---------------|
E|------------------2-4-5---------|

G|--------3-3-3-3-------------4---|
D|7---7-------------------0-5-----|
A|----------------5---2-----------|
E|--------------------------------|

G|------------1-------------------|
D|9---6---6---------6---6---------|
A|----------------8---8-----------|
E|------------------------12------|

G|--------------------------------|
D|4---4---4---4-------------------|
A|----------------6---6---6---6---|
E|--------------------------------|

G|----3--3--------7--7------------|
D|0---------5--5--------8b9-------|
A|--0-------------------------5\--|
E|--------------------------------|

G|----2---------------2-----------|
D|------------7---------------7---|
A|0---------------0---------------|
E|--------5---------------5-------|

G|----3---------------3-----------|
D|------------8---------------8---|
A|1---------------1---------------|
E|--------6---------------6-------|

G|----4---------------4-----------|
D|------------9---------------9---|
A|2---------------2---------------|
E|--------7---------------7-------|

Close panel

Help Rate This Tab by Voting Up or Down

Vote Up Vote Down
Rating: -1 +1

Other Songs Like This

x

Copyright © 2018