Song: Steeple Chaser - Been There

Band: Misc Unsigned Bands

Rating: -0 +0 Views: 93



    

																				-------------------------------------------------------------------------------
			     Been There - Steeple Chaser
-------------------------------------------------------------------------------
Tabbed by: Kyle
Email: the_furk@hotmail.com

Amazing song by a wicked local Winnipeg band. There are multiple guitar parts...
I just tabbed this out the way I like to play it. I'm not sure how correct it is...
But I think it sounds good. And I know it is said far to often but this IS my first
tab. Haha... here it is.

www.steeplechaser.ca



    

Tuning: Standard

Intro/Verse

e|---------------------------------------------------------------------------|
B|---------------------------------------------------------------------------|
G|---------------------------------------------------------------------------|
D|11--11--11-11-11-11--7-77--2--2--2-2-2-2-2/9--9/11-------------------------|
A|11--11--11-11-11-11--7-77--2--2--2-2-2-2-2/9--9/11-------------------------|
E|-9---9---9--9--9--9--5-55--0--0--0-0-0-0-0/7--7/-9-------------------------|

Prechorus

e|-----------------------x-xx-----x-xx---------------------------------------|
B|-----------------------x-xx-----x-xx---------------------------------------|
G|-7-7-------------------x-xx-----x-xx-7-7-----------------------------------|
D|-7-7------7-7------2-2-x-xx-2-2-x-xx-7-7------7-7-----9~---9/11-11/13-13/14|
A|-5-5------7-7------2-2-x-xx-2-2-x-xx-5-5------7-7-----9~-------------------|
E|----------5-5------0-0-x-xx-0-0-x-xx----------5-5-----7~-------------------|

Chorus

e|---------------------------------------------------------------------------|
B|---------------------------------------------------------------------------|
G|---------------------------------------------------------------------------|
D|-7-7-7-77--2-2-2-22--9-9-9-99--2-2-2-22--7-7-7-77--2-2-2-22--9~------------|
A|-7-7-7-77--2-2-2-22--9-9-9-99--2-2-2-22--7-7-7-77--2-2-2-22--9~------------|
E|-5-5-5-55--0-0-0-00--7-7-7-77--0-0-0-00--5-5-5-55--0-0-0-00--7~------------|

Solo

e|---------------------------------------------------------------------------|
B|-4/5-5-5/7-7-7/9-9-9--4/5-5-5/7-7-7/9-9-9--9-10-9--7\5-4/5--5\4-5\4-5\4-4/7|
G|---------------------------------------------------------------------------|
D|---------------------------------------------------------------------------|
A|---------------------------------------------------------------------------|
E|---------------------------------------------------------------------------|

| /  slide up
| \  slide down
| h  hammer-on
| p  pull-off
| ~  vibrato
| +  harmonic
| x  Mute note
===============================================================================

Close panel

Help Rate This Tab by Voting Up or Down

Vote Up Vote Down
Rating: -0 +0

Other Songs Like This

x

Copyright © 2017