Song: Blacktop Manhattan - Hollywise

Band: Misc Unsigned Bands

Rating: -0 +0 Views: 159

Tabbed by: Sumborg
Email: mesterhak@hotmail.com - Please email any changes or suggestions, also any kind of
is more than welcome.

Tuning: Standard EADGBe



    

Intro, guitar 1
e|-----------------------------------------------------------------------------------|
B|-----------------------------------------------------------------------------------|
G|-----------------------------------------------------------------------------------|
D|-----------------------------------------------------------------------------------|
A|-1---4---4---3---3*---1------------------------------------------------------------|
E|-------------------------------------------------------------------
fde
----------------|

   Intro guitar two, played at the * in guitar 1
e|------------------------------------------------------------------------------------|
B|------------------------------------------------------------------------------------|
G|------------------------------------------------------------------------------------|
D|-3/4\3---1--#-----------------------------------------------------------------------|
A|------------------------------------------------------------------------------------|
E|------------------------------------------------------------------------------------|

Guitar two then follows guitar 1 from the # to the * and so forth.



    

Doing the verses there is (at least) 2 guitars playing. Guitar 1 is pumping the bar
listed in the lyrics, while guitar two plays The following chords with a capo in 1st fret:
F, C, G


Verse: [Heavyly palm muted]

[Bbm]She's been living in a[F#] basement down [C#] by the railroad tracks.[G#] [Bbm] Her
have [F#]all left the station the [C#]kids have all turned their backs[G#]. [Bbm]She
in bed [F#]and remembers when the [C#] moon it climbed so high[G#]. [Bbm]But with a 
and a [F#]needle, [C#](Slowly stop palm muting] she never has to leave the sky[G#][G#7].

Refrain: [Bbm]Superman is [F#]killing himself to night,[C#] Holly[G#]wise,
[Bbm]I'm selling my soul to [F#]be in the spotlight,[C#] holly[G#]wise, holly[Bbm]wise. [Bbm]
[G#]

Verse: [Palm muted again]
[Bbm] He's been living with his[F#] momma, [C#]since the market [G#]crashed. [Bbm]His
ran out[F#] with the doctor, [C#]when he ran out on cash[G#]. [Bbm]So now one hand[F#]
the bottle the [C#]other cradles the .44[G#]
[Bbm]Two more [F#]shots and it's over,[C#] he just couldn't hang on [G#]no more[G#7].

Refrain

The solo might not be all that well, it's a bit rough but should provide an idea of how 
goes.

e|--6-----8-------9-------11----------13h16p13--------------13--13----------|
B|--9b11--11b13---12b14---14b16------------------16---14--------------------|
G|--------------------------------------------------------------------------|
D|--------------------------------------------------------------------------|
A|--------------------------------------------------------------------------|
E|--------------------------------------------------------------------------|

e|--13-13-13---------------------------------------------------------13--16--13--19

Close panel

Help Rate This Tab by Voting Up or Down

Vote Up Vote Down
Rating: -0 +0

Other Songs Like This

x

Copyright © 2017