Song: Bed Intruder Song - Evan Gregory

Band: Misc Unsigned Bands

Rating: -1 +1 Views: 189

----------------------------------------------------------

Song:	    Bed Intruder Song
Artist:     Evan Gregory - youtube.com/autotunethenews
Tabbed by:  Jeff Poremba - http://profile.ultimate-guitar.com/jeffporemba/



    


This youtube video is quite funny & the song is pretty catchy.
There are so many parody videos out there already, but no guitar tabs.  
Try muting with up and down strokes a few times before the chord changes.
Play it however you like. Just have fun with it.

Please rate & enjoy!



    


Tuning: standard EADGBe

Chords used:

     Gm   Cm   Dm   Eb   F


e----3----3----5----6----1------|
B----3----4----6----8----1------|
G----3----5----7----8----2------|
D----5----5----7----8----3------|
A----5----3----5----6----3------|
E----3--------------6----1------|


Chorus Chords: Gm Cm Dm

Verse Chords: Eb Dm Cm Gm F




Chorus:

     Gm
He's climbin' in your windows, he's snatchin' your people up

Cm                               Dm
Tryin'a rape em so y'all need to hide your kids, hide your wife,

Gm                              
hide your kids, hide your wife, hide your kids, hide your wife,

Cm                                Dm
and hide your husband cuz they're rapin' errbody out here

Gm
You don't have to come and confess, we're lookin' for you.

Cm               Dm
We gon find you, we gon find you

   Gm                         
so you can run and tell that, run and tell that, 

        Cm                  Dm
run and tell that, homeboy, home, home, homeboy.



Verse:

   Eb                              Dm
We got your t-shirt, you done left fingerprints and all, 

           Cm                   Gm
you are so dumb. You are really dumb--for real.

Eb               Dm
The man got away leaving behind evidence.

Cm                     F

I was attacked by some idiot in the projects.

Gm~
So dumb, so dumb, so dumb, so...

(repeat the Chorus x2)



     Gm   Cm   Dm   Eb   F


e----3----3----5----6----1------|
B----3----4----6----8----1------|
G----3----5----7----8----2------|
D----5----5----7----8----3------|
A----5----3----5----6----3------|
E----3--------------6----1------|

----------------------------------------------------------end.

Close panel

Help Rate This Tab by Voting Up or Down

Vote Up Vote Down
Rating: -1 +1

Other Songs Like This

x

Copyright © 2017