Song: Pups To Dust

Band: Modest Mouse
Composed By: Isaac Brock, Modest Mouse

Rating: -0 +0 Views: 7

(/) Slide Up  (\) Slide Down  (h) Hammer On  (p) Pull Off  (b) Bend (r) Release (v) Vibrato
 
Riff                                A-
E|---------------------------------------------------------------------------------------|
B|---------------------------10--------12--10--------------------------------------------|
G|--------7--6h7--9----9/11------11------------11--9--11--9------------------------------|
D|--7--9-----------------------------------------------------12--11--12/14\12p11---------|
A|--------------------------------------------------------------------------------12--9--|
E|---------------------------------------------------------------------------------------|
                                    A-
Verses



    
 
E|----------------------------------(7)|
B|----------------------------------(7)|
G|--------7--7--0--6h7--7--7--7--0--(7)|There are multiple times where the song "stops". You need to do the 7th
D|--7--9----------------------------|   fret harmonics on GBE and whammy the notes higher.
A|----------------------------------|
E|----------------------------------|
 
Chorus
 
E|-----------------HERE DO-------------------|
B|-----------------THE    -------------------|
G|------11/14\11---RIFF   -----11h14/16--11--| (
D|--12-------------FROM   -12----------------|
A|-----------------POINT  -------------------|
E|-----------------A      -------------------|



    
 
Pre-Solo chords: 
F#5, E5, G5, F#5 slide to G5 and back to F#5
F#, E5, D5, C#5, A5.

Solo:
E|---------------------------------------------------------------------------------------|
B|---------------------------10--------12--10--------------------------------------------|
G|--------7--6h7--9----9/11------11------------11--9--11--9------------------------------|
D|--7--9-----------------------------------------------------12--11--12/14\12p11---------|
A|--------------------------------------------------------------------------------12--9--|
E|---------------------------------------------------------------------------------------|

E|----------------------------------------------|
B|---------------------------10------10-10-10-10|... Bend the strings a little and tremolo the shit out of
G|--------7--6h7--9----9/11------11--11-11-11-11|... these notes.
D|--7--9----------------------------------------|
A|----------------------------------------------|
E|----------------------------------------------|

Ending:
E|---------------...|
B|--10--7--------...|
G|---------9--7--...| Until the end, using 7th fret harmonics 
D|---------------...|
A|---------------...|
E|---------------...|

 
That's the tab, there's a few variations but they only use the notes on the tab.

This is my first tab. If you have any suggestions or questions, feel free to contact me at spastenq@gmail.com
 
Tabbed by Seba "Aceback" Pastn Quiroz.

View Just Lyrics...

Our hearts don't change from pups to dust
Couldn't see clearly
But I had a sense of what right and wrong was
Honest to God, I was honest as hell
I don't lie very often but I lie very well
Give it away, take what you need
Love does not cost money, but it ain't free

We're learning slowly
Equal parts of what you do, you don't
We don't remember
We don't remember just how we got here
Equal parts of what we do, we don't
We don't belong here
We were just born here

We remain the same (I'm not sure about that)
Or pretty much the same (Now that's more like it)
From birth to grave, I couldn't see so clearly what I was or became
Oh, I missed a spot (Scrubba scrubba scrubba scrubba)
On my dirty thoughts
The way we feel about what we do is by who has watched us, so

Aw, how'd we get here?
Equal parts of what we do, we don't
We don't remember
We were just born here though
Oh, what's the bother?
Equal parts of what you do, you don't
We don't remember
We were just born here
We don't belong here
We were just born here

I feel so anxious mostly all of the time
If there's some point to this then which one is mine?

We really don't belong here, we really ought to wander
We really don't belong here, we really ought to wander
We really don't belong here, we really ought to wander away

View Albums that This Song Appears On...

  • Strangers to Ourselves

    Genre: Pop/Rock Label: Columbia Song Duration on Album: 3:30 Album Duration: 56:51

    Release Date: March 17, 2015

    Moods: Angst-Ridden, Brash, Brooding, Cathartic, Confrontational, Earnest, Fiery, Reflective, Rousing, Self-Conscious, Urgent, Volatile, Quirky

    Styles: Indie Rock, Alternative/Indie Rock

    Themes: Empowering, Guys Night Out, Hanging Out, Introspection, Night Driving, Nighttime, Open Road, Rainy Day, Reflection, The Creative Side

Close panel

Help Rate This Tab by Voting Up or Down

Vote Up Vote Down
Rating: -0 +0

Other Songs Like This

x

Copyright © 2017