Song: Take Me To The Top Bass

Band: Motley Crue

Rating: -1 +1 Views: 85

Artist:Motley Crue
Song:Take Me to the Top
Album:Too Fast for Love
Bassist:Nikki Sixx
Tabber:Dev Fuld

This is such an awesome tune off the best Crue album, Too Fast for Love.



    

Key:
x = times a number

Intro
G:---------|---------|-------|-------|-------|-------|
D:---------|---------|-------|-------|-------|-------|
A:---------|---------|-------|-------|-------|-------|
D:5x16-3x16|5x16-3x16|5-5-5-3|5-5-5-3|5-5-5-3|5-5-5-3|

Pre-Verse
G:--------|--------|---|
D:--------|--------|---|
A:--1-----|--1-----|--1|
D:1---5x12|1---5x12|1--|



    

Verse 1
G:--------------------10-8---------------------------------------------------|
D:-------------------------10-8----------------------------------------------|
A:----------5x8-6x8-8-----------10-8--------------1-----------5x8-6x8-8x16-10|
D:5x16-3x16--------------------------12-10-9-5--1---5x16-3x16----------------|

Chorus
G:---------|---------|-------|-------|
D:---------|---------|-------|-------|
A:---------|---------|-------|-------|
D:5x16-3x16|5x16-3x16|5-5-5-3|5-5-5-3|

Pre-Verse

Verse 2
G:----------------------------------------------------|
D:----------------------------------------------------|
A:----------5x8-6x8-8x12---1-----------5x8-6x8-8x16-10|
D:5x16-3x16--------------1---5x16-3x16----------------|

Chorus

Solo
G:------------------------------------------------7---------8------------|
D:-----------------------------------------------------------------------|
A:----------5x8-6x8-8x12---1----------1-2-3-4-5x5---5-5-6x5---6-6-8x16-10|
D:5x16-3x16--------------1---5x16-3x9------------------------------------|

End 
G:---------|---------|-----|
D:---------|---------|-----|
A:---------|---------|-----|
D:5x16-3x16|5x16-3x16|3---5|

That's it! This tab is 100% correct. This is a Crue song, so play it with attitude. This 
tab is already in order. Any questions or comments, e-mail me at rocklvson@yahoo.com

Close panel

Help Rate This Tab by Voting Up or Down

Vote Up Vote Down
Rating: -1 +1

Other Songs Like This

x

Copyright © 2017