Song: Home Sweet Home Bass

Band: Motley Crue

Rating: -1 +1 Views: 227

Artist: Motley Crue 
Song: Home Sweet Home

Tuning: E A D G



    

  Intro
G|-------|
D|-------|
A|-------|
E|-------|

 Verse
|--------|
|--------|
|--------|
|--------|

 Verse     0:25              
|----------------------|
|-------2~~~~----------|   (Play with piano if you want)
|--3~~~~-----1~~~~-----|
|----------------------|



    

 Verse
|----------------------|
|-------2~~~~----------|
|--3~~~~-----1~~~~-----|
|-----------------1h~~~|

 Chorus
|-----------------------------------------|
|-----------------------------------------|
|----------1-1-1-1-3-3-3-3-/-17~~~~\-0----|
|--4-4-4-4--------------------------------|

|-----------------------------------------|
|-----------------------------------------|
|----------1-1-1-1-3-3-3-3-/-17~~~~\-3----|
|--4-4-4-4--------------------------------|

 Verse
|----------------------|
|----------------------|  2x
|--3~~~~2~~~~1~~~~-----|
|-----------------1h~~~|

 Chorus
|-----------------------------------------|
|-----------------------------------------|
|----------1-1-1-1-3-3-3-3-/-17~~~~\-3----|
|--4-4-4-4--------------------------------|

|------------------|
|------------------|
|----------1-1-1-1-|
|--4-4-4-4---------|

 Pre-Guitar Solo
|--------------------------------------------------------------------|
|--------------------------------------------------------------------|
|--3-3-3-3-1-1-1-1---------1-1-1-1-3-3-3-3-1-1-1-1---------1-1-/17---|
|------------------4-4-4-4-------------------------4-4-4-4-----------|
 
 Guitar Solo
|--------------------------------------------------------------------|
|--------------------------------------------------------------------|
|--3333333311111111--------11111111-3333333311111111--------11111----|
|------------------44444444-------------------------44444444---------|

 Post-Guitar Solo
|-----------------------------------------------------------------|
|-----------------------------------------------------------------|
|----------1-1-1-1-3-3-3-3-/-17~~~~\-0----------1-1-1-1-3~~~~~~~~-|
|--4-4-4-4------------------------------4-4-4-4-------------------|

 Outro
|--------------------------|
|--------------------------|
|--3~~~~2~~~~1~~~~---------|
|-----------------1~~~~~~~-|

  
                          Tabbed by: Jeff
 
                                 END

Close panel

Help Rate This Tab by Voting Up or Down

Vote Up Vote Down
Rating: -1 +1

Other Songs Like This

x

Copyright © 2018