Song: Home Sweet Home Bass

Band: Motley Crue

Rating: -1 +1 Views: 251

Artist:Motley Crue
Song:Home Sweet Home
Album:Theatre of Pain
Bassist:Nikki Sixx
Tabber:Dev Fuld

This is an awesome ballad. Really kicks ass, I play it on Piano/keyboard too. This tab 
is totally correct.



    

Key:
x = times a number
* = let it ring
/ = slide up

Verse (If you want to, then play this with the Piano)
G:-----------|
D:-----------|
A:3*-2*-1*---|
E:---------1*|

Chorus (where all instruments enter)
G:---------------/5*|---------------/5*|
D:------------------|------------------|
A:----1x4-1---3*----|----1x4-1---3*----|
E:4x8-------3-------|4x8-------3-------|



    

Verse

Chorus

Solo
G:---------------|---------------|
D:---------------|---------------|
A:3x8-1x8-----1x8|3x8-1x8-----1x8|
E:--------4x8----|--------4x8----|

Continued...
G:---------------------------------------------------------------|
D:--------5-3-------------5-3-------------3-1-------------3-1----|
A:3-3-5-3-----5-3-3-3-5-3-----5-3-1-1-3-1-----3-1-1-1-3-1-----3-1|
E:---------------------------------------------------------------|

Continued...
G:---------------------------------------------------------------|
D:----------------------------------------3-1-------------3-1----|
A:--------6-4-------------6-4-----1-1-3-1-----3-1-1-1-3-1-----3-1|
E:4-4-6-4-----6-4-4-4-6-4-----6-4--------------------------------|

Do the Continued parts another time

Chorus

Piano part...add in bass if you'd like to.

That's it. I'm pretty sure that the solo parts are correct. That's how I play them and 
it sounds excellent. This tab has already been put in order. Any questions or comments, 
e-mail me at rocklvson@yahoo.com

Close panel

Help Rate This Tab by Voting Up or Down

Vote Up Vote Down
Rating: -1 +1

Other Songs Like This

x

Copyright © 2018