Song: Take Me To The Top

Band: Motley Crue

Rating: -1 +1 Views: 92

TAKE ME TO THE TOP
MOTLEY CRUE
TOO FAST FOR LOVE

i looked at the other tab for this song and this is the way i play it
i have made some corrections to the chorus riff and verse riff
.... works for me hope does the same for you



    
 
cheers

PM- palm mute
h- hammer on
p- pull off
\- slide down
~- let ring
nh- natural harmonic
\\/- dive with bar

d standard tuning- dafcgd



    

intro- x8
   PM         PM        PM      PM
d---------------------------------------|
a---------------------------------------|
f-------9--7-------7--5-----5--7-----7--|
c-------7--7-------7--5-----5--7-----7--|
g--0-0---------0---------0--------0-----|
d---------------------------------------|

   PM      PM      PM    PM   nh---------|
d----------------------------------------|
a---------------------------------5---5--|
f-------9-------9------9------5-5---5----|
c-------7-------7------7-----------------|
g--0-0-----0-0-----0-0----0--------------|
d----------------------------------------|

   PM      PM      PM     PM
d----------------------------------|
a----------------------------------|
f-------9-------9-------9-----9--7-|
c-------7-------7-------7-----7--5-|
g--0-0-----0-0-----0-0-----0-------|
d----------------------------------|

   PM      PM      PM     PM
d----------------------------------|
a----------------------------------|
f-------9-------9-------9-----9--7-|
c-------7-------7-------7-----7--5-|
g--0-0-----0-0-----0-0-----0-------|
d----------------------------------|


   PM      PM      PM     PM
d-----------------------------------|
a-----------------------------------|
f-------9-------9-------9-----9--7~-|
c-------7-------7-------7-----7--5~-|
g--0-0-----0-0-----0-0-----0--------|
d-----------------------------------|

when picking 16th notes move up the fretboard
d------------------------------------------|
a------------------------------------------|
f------------------------------------------|
c------------------------------------------|
g--3---5---0-0-0-0-0-0-0-0-0-0-0-0-0-0-0-0-|
d--1---3-----------------------------------|

trigger the n.h by sliding up the neck
d------------------------------------------|
a------------------------------------------|
f------------------------------------------|
c------------------------------------------|
g--3---5---0-0-0-0-0-0-0-0-0-0-0-0-0-0-0-0-|
d--1---3-----------------------------------|

verse
           PM----------------------------|
d------------------------------------------------|
a------------------------------------------------|
f------------------------------------------------|
c----------2-2-2-2-2-2-2-2-2-2-2-2-2-2-2-2-------|
g--3---5---0-0-0-0-0-0-0-0-0-0-0-0-0-0-0-0-------|
d--1---3-----------------------------------------|
           
           PM----------------------------|
d------------------------------------------------|
a------------------------------------------------|
f------------------------------------------------|
c------------------------------------------------|
g----------5-5-5-5-5-5-5-5-5-5-5-5-5-5-5-5-------|
d----------3-3-3-3-3-3-3-3-3-3-3-3-3-3-3-3-------|

    PM-------|    PM---------------|    PM------------|
d--------------------------------------------------------|
a--------------------------------------------------------|
f--------------------------------------------------------|
c--9-9-9-9-9-9--10-10-10-10-10-10-10--12-12-12-12-12-12--|
g--7-7-7-7-7-7--8--8--8--8--8--8--8---10-10-10-10-10-10--|
d--------------------------------------------------------|

            PM----------------------------|
d------------------------------------------------|
a------------------------------------------------|
f------------------------------------------------|
c----------2-2-2-2-2-2-2-2-2-2-2-2-2-2-2-2-------|
g--3---5---0-0-0-0-0-0-0-0-0-0-0-0-0-0-0-0-------|
d--1---3-----------------------------------------|
           
           PM----------------------------|
d------------------------------------------------|
a------------------------------------------------|
f------------------------------------------------|
c------------------------------------------------|
g----------5-5-5-5-5-5-5-5-5-5-5-5-5-5-5-5-------|
d----------3-3-3-3-3-3-3-3-3-3-3-3-3-3-3-3-------|

   PM-------|    PM---------------|    PM------------|
d------------------------------------------------------------|
a------------------------------------------------------------|
f--------------------------------------------------------///2|
c--9-9-9-9-9-9--10-10-10-10-10-10-10--12-12-12-12-12-12--///2|
g--7-7-7-7-7-7--8--8--8--8--8--8--8---10-10-10-10-10-10--///0|
d------------------------------------------------------------|

chorus- x8
      PM         PM        PM      PM
d---------------------------------------|
a---------------------------------------|
f-------9--7-------7--5-----5--7-----7--|
c-------7--7-------7--5-----5--7-----7--|
g--0-0---------0---------0--------0-----|
d---------------------------------------|

   PM      PM      PM     PM
d----------------------------------|
a----------------------------------|
f-------9-------9-------9-----9--7-|
c-------7-------7-------7-----7--5-|
g--0-0-----0-0-----0-0-----0-------|
d----------------------------------|


   PM      PM      PM     PM
d-----------------------------------|
a-----------------------------------|
f-------9-------9-------9-----9--7~-|
c-------7-------7-------7-----7--5~-|
g--0-0-----0-0-----0-0-----0--------|
d-----------------------------------|

when picking 16th notes move up the fretboard
d------------------------------------------|
a------------------------------------------|
f------------------------------------------|
c------------------------------------------|
g--3---5---0-0-0-0-0-0-0-0-0-0-0-0-0-0-0-0-|
d--1---3-----------------------------------|

when picking 16th notes move down the fretboard
d------------------------------------------|
a------------------------------------------|
f------------------------------------------|
c------------------------------------------|
g--3---5---0-0-0-0-0-0-0-0-0-0-0-0-0-0-0-0-|
d--1---3-----------------------------------|

verse
           PM----------------------------|
d------------------------------------------------|
a------------------------------------------------|
f------------------------------------------------|
c----------2-2-2-2-2-2-2-2-2-2-2-2-2-2-2-2-------|
g--3---5---0-0-0-0-0-0-0-0-0-0-0-0-0-0-0-0-------|
d--1---3-----------------------------------------|
           
           PM----------------------------|
d------------------------------------------------|
a------------------------------------------------|
f------------------------------------------------|
c------------------------------------------------|
g----------5-5-5-5-5-5-5-5-5-5-5-5-5-5-5-5-------|
d----------3-3-3-3-3-3-3-3-3-3-3-3-3-3-3-3-------|

    PM-------|    PM---------------|    PM------------|
d--------------------------------------------------------|
a--------------------------------------------------------|
f--------------------------------------------------------|
c--9-9-9-9-9-9--10-10-10-10-10-10-10--12-12-12-12-12-12--|
g--7-7-7-7-7-7--8--8--8--8--8--8--8---10-10-10-10-10-10--|
d--------------------------------------------------------|

            PM----------------------------|
d------------------------------------------------|
a------------------------------------------------|
f------------------------------------------------|
c----------2-2-2-2-2-2-2-2-2-2-2-2-2-2-2-2-------|
g--3---5---0-0-0-0-0-0-0-0-0-0-0-0-0-0-0-0-------|
d--1---3-----------------------------------------|
           
           PM----------------------------|
d------------------------------------------------|
a------------------------------------------------|
f------------------------------------------------|
c------------------------------------------------|
g----------5-5-5-5-5-5-5-5-5-5-5-5-5-5-5-5-------|
d----------3-3-3-3-3-3-3-3-3-3-3-3-3-3-3-3-------|

   PM-------|    PM---------------|    PM------------|
d-------------------------------------------------------------|
a-------------------------------------------------------------|
f--------------------------------------------------------\\\\2|
c--9-9-9-9-9-9--10-10-10-10-10-10-10--12-12-12-12-12-12--\\\\2|
g--7-7-7-7-7-7--8--8--8--8--8--8--8---10-10-10-10-10-10--\\\\0|
d-------------------------------------------------------------|

chorus- x8
   PM         PM        PM      PM
d---------------------------------------|
a---------------------------------------|
f-------9--7-------7--5-----5--7-----7--|
c-------7--7-------7--5-----5--7-----7--|
g--0-0---------0---------0--------0-----|
d---------------------------------------|

   PM      PM      PM     PM
d----------------------------------|
a----------------------------------|
f-------9-------9-------9-----9--7-|
c-------7-------7-------7-----7--5-|
g--0-0-----0-0-----0-0-----0-------|
d----------------------------------|


   PM      PM      PM     PM
d---------------------------------------|
a---------------------------------------|
f-------9-------9-------9-----9--7------|
c-------7-------7-------7-----7--5------|
g--0-0-----0-0-----0-0-----0------------|
d---------------------------------------|

solo      ...havent posted this part yet refer to the other solo page

(rythm play verse section)


chorus- x8
   PM         PM        PM      PM
d--------------------------------------------|
a--------------------------------------------|
f-------9--7-------7--5-----5--7-----7--\\\\2|
c-------7--7-------7--5-----5--7-----7--\\\\2|
g--0-0---------0---------0--------0-----\\\\0|
d--------------------------------------------|

Close panel

Help Rate This Tab by Voting Up or Down

Vote Up Vote Down
Rating: -1 +1

Other Songs Like This

x

Copyright © 2017