Song: Take Me To The Top

Band: Motley Crue

Rating: -1 +1 Views: 84

take me to the top
motley crue

PM- palm mute
h- hammeron
p- pull off
/- slide up
~- let ring
nh- natural harmonic
\\/- dive with bar



    

d tuning- dafcgd

intro- x8
   PM         PM        PM
d--------------------------------|
a--------------------------------|
f-------9--7-------3--5-----5--7-|
c-------7--7-------3--3-----5--5-|
g--0-0--------0-0--------0-------|
d--------------------------------|

   PM      PM      PM    PM   nh---------|
d----------------------------------------|
a---------------------------------5---5--|
f-------9-------9------9------5-5---5----|
c-------7-------7------7-----------------|
g--0-0-----0-0-----0-0----0--------------|
d----------------------------------------|



    

   PM      PM      PM     PM
d----------------------------------|
a----------------------------------|
f-------9-------9-------9-----9--7-|
c-------7-------7-------7-----7--5-|
g--0-0-----0-0-----0-0-----0-------|
d----------------------------------|

   PM      PM      PM     PM
d----------------------------------|
a----------------------------------|
f-------9-------9-------9-----9--7-|
c-------7-------7-------7-----7--5-|
g--0-0-----0-0-----0-0-----0-------|
d----------------------------------|


   PM      PM      PM     PM
d-----------------------------------|
a-----------------------------------|
f-------9-------9-------9-----9--7~-|
c-------7-------7-------7-----7--5~-|
g--0-0-----0-0-----0-0-----0--------|
d-----------------------------------|

when picking 16th notes move up the fretboard
d------------------------------------------|
a------------------------------------------|
f------------------------------------------|
c------------------------------------------|
g--3---5---0-0-0-0-0-0-0-0-0-0-0-0-0-0-0-0-|
d--1---3-----------------------------------|

when picking 16th notes move down the fretboard
d------------------------------------------|
a------------------------------------------|
f------------------------------------------|
c------------------------------------------|
g--3---5---0-0-0-0-0-0-0-0-0-0-0-0-0-0-0-0-|
d--1---3-----------------------------------|

verse
           PM------------|      PM---------------|
d------------------------------------------------|
a------------------------------------------------|
f------------------------------------------------|
c----------2-2-2-2-2-2-2-2--5~--2-2-2-2-2-2-2-2--|
g--3---5---0-0-0-0-0-0-0-0--3~--0-0-0-0-0-0-0-0--|
d--1---3-----------------------------------------|

      PM------|     PM------|      PM-----------------|
d-----------------------------------------------------|
a-----------------------------------------------------|
f-----------------------------------------------------|
c--7--7-7-7-7-7--9--9-9-9-9-9--10--10-10-10-10-10-12--|
g--5--5-5-5-5-5--7--7-7-7-7-7--8---8--8--8--8--8--10--|
d-----------------------------------------------------|

           PM------------|      PM---------------|
d------------------------------------------------|
a------------------------------------------------|
f------------------------------------------------|
c----------2-2-2-2-2-2-2-2--5~--2-2-2-2-2-2-2-2--|
g--3---5---0-0-0-0-0-0-0-0--3~--0-0-0-0-0-0-0-0--|
d--1---3-----------------------------------------|

      PM------|     PM------|      PM-----------------|
d-----------------------------------------------------|
a-----------------------------------------------------|
f-----------------------------------------------------|
c--7--7-7-7-7-7--9--9-9-9-9-9--10--10-10-10-10-10-10--|
g--5--5-5-5-5-5--7--7-7-7-7-7--8---8--8--8--8--8--8---|
d-----------------------------------------------------|

chorus- x8
   PM         PM        PM
d--------------------------------|
a--------------------------------|
f-------9--7-------3--5-----5--7-|
c-------7--7-------3--3-----5--5-|
g--0-0--------0-0--------0-------|
d--------------------------------|

   PM      PM      PM     PM
d----------------------------------|
a----------------------------------|
f-------9-------9-------9-----9--7-|
c-------7-------7-------7-----7--5-|
g--0-0-----0-0-----0-0-----0-------|
d----------------------------------|


   PM      PM      PM     PM
d-----------------------------------|
a-----------------------------------|
f-------9-------9-------9-----9--7~-|
c-------7-------7-------7-----7--5~-|
g--0-0-----0-0-----0-0-----0--------|
d-----------------------------------|

when picking 16th notes move up the fretboard
d------------------------------------------|
a------------------------------------------|
f------------------------------------------|
c------------------------------------------|
g--3---5---0-0-0-0-0-0-0-0-0-0-0-0-0-0-0-0-|
d--1---3-----------------------------------|

when picking 16th notes move down the fretboard
d------------------------------------------|
a------------------------------------------|
f------------------------------------------|
c------------------------------------------|
g--3---5---0-0-0-0-0-0-0-0-0-0-0-0-0-0-0-0-|
d--1---3-----------------------------------|

verse
           PM------------|      PM---------------|
d------------------------------------------------|
a------------------------------------------------|
f------------------------------------------------|
c----------2-2-2-2-2-2-2-2--5~--2-2-2-2-2-2-2-2--|
g--3---5---0-0-0-0-0-0-0-0--3~--0-0-0-0-0-0-0-0--|
d--1---3-----------------------------------------|

      PM------|     PM------|      PM-----------------|
d-----------------------------------------------------|
a-----------------------------------------------------|
f-----------------------------------------------------|
c--7--7-7-7-7-7--9--9-9-9-9-9--10--10-10-10-10-10-12--|
g--5--5-5-5-5-5--7--7-7-7-7-7--8---8--8--8--8--8--10--|
d-----------------------------------------------------|

           PM------------|      PM---------------|
d------------------------------------------------|
a------------------------------------------------|
f------------------------------------------------|
c----------2-2-2-2-2-2-2-2--5~--2-2-2-2-2-2-2-2--|
g--3---5---0-0-0-0-0-0-0-0--3~--0-0-0-0-0-0-0-0--|
d--1---3-----------------------------------------|

      PM------|     PM------|      PM-----------------|
d-----------------------------------------------------|
a-----------------------------------------------------|
f-----------------------------------------------------|
c--7--7-7-7-7-7--9--9-9-9-9-9--10--10-10-10-10-10-10--|
g--5--5-5-5-5-5--7--7-7-7-7-7--8---8--8--8--8--8--8---|
d-----------------------------------------------------|

chorus- x8
   PM         PM        PM
d--------------------------------|
a--------------------------------|
f-------9--7-------3--5-----5--7-|
c-------7--7-------3--3-----5--5-|
g--0-0--------0-0--------0-------|
d--------------------------------|

   PM      PM      PM     PM
d----------------------------------|
a----------------------------------|
f-------9-------9-------9-----9--7-|
c-------7-------7-------7-----7--5-|
g--0-0-----0-0-----0-0-----0-------|
d----------------------------------|


   PM      PM      PM     PM
d---------------------------------------|
a---------------------------------------|
f-------9-------9-------9-----9--7-\\/--|
c-------7-------7-------7-----7--5-\\/--|
g--0-0-----0-0-----0-0-----0------------|
d---------------------------------------|


Any questions? wilty00@hotmail.com :) Enjoy! More Crue tabs to come!

Close panel

Help Rate This Tab by Voting Up or Down

Vote Up Vote Down
Rating: -1 +1

Other Songs Like This

x

Copyright © 2017