Song: Starlight

Band: Muse
Composed By: Matthew Bellamy

Rating: -1 +1 Views: 85

Intro:
rhythm:
(basse)
e|------------------------------------------------------------|
B|------------------------------------------------------------|
G|------------------------------------------------------------|
D|--------------------------------------66666-----------------|
A|-----------------------------------6---------77777--6--7--9-|
E|--7-x32--77777777--99999999--7--9---------------------------|
lead:
(piano & guitare)  
e|------------------------------------------------------------|
B|--4----4-5-----5-4---4-----4-5-----5-4----------------------|
G|----4------6-------6---4-------4-------6--------------------|
D|------4------6-----------6-------6--------------------------|
A|------------------------------------------------------------|
E|------------------------------------------------------------|




    


Verse 1:
rhythm:
(basse)
e|------------------------------------------------------------|
B|------------------------------------------------------------|
G|------------------------------------------------------------|
D|--------------------------------------66666-----------------|
A|-----------------------------------6---------77777--6--7--9-|
E|---------77777777--99999999--7--9---------------------------|

Far away, this ship is taking me far away...



    

Far away from the memories...

Of the people who care if I live or die...

Starlight, I will be chasing a starlight...

Until the end of my life...

I don't know if it's worth it anymore...


Chorus:
rhythm:
(basse)
e|------------------------------------------------------------|
B|------------------------------------------------------------|
G|------------------------------------------------------------|
D|--------------------------------------66666-----------------|
A|-----------------------------------6---------77777--6--7--9-|
E|---------77777777--99999999--7--9---------------------------|
lead:
(piano & guitare)  
e|------------------------------------------------------------|
B|--4----4-5-----5-4---4-----4-5-----5-4----------------------|
G|----4------6-------6---4-------4-------6--------------------|
D|------4------6-----------6-------6--------------------------|
A|------------------------------------------------------------|
E|------------------------------------------------------------|


Hold you in my arms...

I just wanted to hold you in my arms...


Verse 2:
lead:

e|----7---7-----7---7-------7---7---------7---7-------|
B|--7---7---7---------7-----------7-------------7-----|
G|------------9---9-----9-8---8-----8-8/9---9-----9---|
D|----------------------------------------------------|
A|----------------------------------------------------|
E|----------------------------------------------------|

My life, you electrify my life...

Let's conspire to ignite...

All the souls that will die just to feel your life...


Refrain:
rhythm:

e|----------------------------------------------------|
B|----------------------------------------------------|
G|--6666------8888----------------------8888----------|
D|--6666-4444-8888-6666--7777-2222-7777-8888----------|
A|--4444-4444-6666-6666--7777-2222-7777-6666----------|
E|-------2222------4444--5555-0000-5555---------------|

I'll never let you go...

If you promise not to...

Fade away...

Never fade away...


Bridge:
lead:
e|--7--7--7--6--6--6--7--7--7-----7---7--------------|
B|---9--9--9--8--8--8--9--9--9---7-----7-------------|
G|----8--8-----8--8-----9--9----8--898---------------|
D|--------------------------------------9------------|
A|---------------------------------------------------|
E|---------------------------------------------------|

Our hopes and expectations...

Black Holes and Revelations...

Our hopes and expectations...

Black Holes and Revelations...

(basse)
e|------------------------------------------------------------|
B|------------------------------------------------------------|
G|------------------------------------------------------------|
D|--------------------------------------66666-----------------|
A|-----------------------------------6---------77777--6--7--9-|
E|--7-x32--77777777--99999999--7--9---------------------------|

Chorus:
lead:
(piano & guitare)  
e|------------------------------------------------------------|
B|--4----4-5-----5-4---4-----4-5-----5-4----------------------|
G|----4------6-------6---4-------4-------6--------------------|
D|------4------6-----------6-------6--------------------------|
A|------------------------------------------------------------|
E|------------------------------------------------------------|


Hold you in my arms...

I just wanted to hold you in my arms...


Verse 3:
lead:

e|----7---7-----7---7-------7---7---------7---7-------|
B|--7---7---7---------7-----------7-------------7-----|
G|------------9---9-----9-8---8-----8-8/9---9-----9---|
D|----------------------------------------------------|
A|----------------------------------------------------|
E|----------------------------------------------------|


Far away, this ship is taking me far away...

Far away from the memories...

Of the people who care if I live or die...

Refrain:
rhythm:
e|----------------------------------------------------|
B|----------------------------------------------------|
G|--6666------8888----------------------8888----------|
D|--6666-4444-8888-6666--7777-2222-7777-8888----------|
A|--4444-4444-6666-6666--7777-2222-7777-6666----------|
E|-------2222------4444--5555-0000-5555---------------|


I'll never let you go...

If you promise not to...

Fade away...

Never fade away...


Bridge:
Variante sur la 5ieme fois dernier accord change ----->
e|----------------------------------------------------|------------------|
B|----------------------------------------------------|------------------|
G|-----------88888888--99999999-----------------------|x4-11111111111111-|
D|--66666666-88888888--99999999-99999999--------------|---11111111111111-|
A|--66666666-66666666--77777777-99999999--------------|----9-9-9-9-9-9-9-|
E|--44444444--------------------77777777--------------|------------------|

Our hopes and expectations...

Black Holes and Revelations...

Our hopes and expectations...

Black Holes and Revelations...


Chorus:rhythm:
(basse)
e|------------------------------------------------------------|
B|------------------------------------------------------------|
G|------------------------------------------------------------|
D|--------------------------------------66666-----------------|
A|-----------------------------------6---------77777--6--7--9-|
E|---------77777777--99999999--7--9---------------------------|
lead:
(piano & guitare)  
e|------------------------------------------------------------|
B|--4----4-5-----5-4---4-----4-5-----5-4----------------------|
G|----4------6-------6---4-------4-------6--------------------|
D|------4------6-----------6-------6--------------------------|
A|------------------------------------------------------------|
E|------------------------------------------------------------|

Hold you in my arms...

I just wanted to hold you in my arms...

View Just Lyrics...

Far away
The ship is taking me far away
Far away from the memories
Of the people who care if I live or die

The starlight
I will be chasing a starlight
Until the end of my life
I don't know if it's worth it anymore

Hold you in my arms
I just wanted to hold
You in my arms

My life
You electrify my life
Let's conspire to ignite
All the souls that would die just to feel alive

Now I'll never let you go
If you promised not to fade away
Never fade away

Our hopes and expectations
Black holes and revelations
Our hopes and expectations
Black holes and revelations

Hold you in my arms
I just wanted to hold
You in my arms

Far away
The ship is taking me far away
Far away from the memories
Of the people who care if I live or die

And I'll never let you go
If you promise not to fade away
Never fade away

Our hopes and expectations
Black holes and revelations
Our hopes and expectations
Black holes and revelations

Hold you in my arms
I just wanted to hold
You in my arms
I just wanted to hold

View Albums that This Song Appears On...

  • Black Holes and Revelations

    Genre: Pop/Rock Label: WM UK Song Duration on Album: 4:03 Album Duration: 45:25

    Release Date: July 11, 2006

    Moods: Ambitious, Dramatic, Theatrical, Aggressive, Confident, Earnest, Intense, Passionate, Searching, Visceral, Volatile, Yearning, Angst-Ridden, Energetic, Paranoid, Brooding, Cathartic

    Styles: Alternative Pop/Rock, Alternative/Indie Rock, Neo-Prog, Prog-Rock

    Themes: Introspection, Reflection, The Creative Side

  • Starlight

    Genre: Pop/Rock Label: Warner Bros. Song Duration on Album: 4:03 Album Duration: 7:44

    Release Date: September 4, 2006

  • XFM Presents: This Is Music

    Label: MSI Music Distribution / Sony BMG / Sony Music Distribution

    Release Date: November 6, 2006

Close panel

Help Rate This Tab by Voting Up or Down

Vote Up Vote Down
Rating: -1 +1

Other Songs Like This

x

Copyright © 2019