Song: Starlight Bass

Band: Muse

Rating: -1 +1 Views: 71

Muse - Starlight
Album : Black Holes and Revelations
Tab by Kukuh Rahmanto

Tuning : E,A,D,G



    

Intro

G|------------------------------------|
D|------------------------------------|
A|------------------------------------|
E|--77777777777777777777777777777777--|

Verse Pt.1



    

G|---------------------------------------------------------------------------------|
D|---------------------------------------------------------------------------------|
A|--------------------------------------9-11-11-11-11-11-11-11-11-7-7-7-7-7-6-7-9--|
E|--7-7-7-7-7-7-7-7-9-9-9-9-9-9-9-9-7-9--------------------------------------------|

Chorus

G|-------------------------------------------------------------------|
D|-------------------------------------------------------------------|
A|--4-4-4-4---------6-6-6-6---------0-0-0-0---------0-0-0-0-6-6-6-6--|
E|----------2-2-2-2---------4-4-4-4---------0-0-0-0------------------|

Bridge

G|------------------------------------------------------------------|
D|------------------------------------------------------------------|
A|-----------------6-6-6-6-6-6-6-6-4-4-4-4-4-4-4-4-2-2-2-2-2-2-2-2--|
E|-4-4-4-4-4-4-4-4--------------------------------------------------|

G|------------------------------------------------------------------|
D|------------------------------------------------------------------|
A|-----------------6-6-6-6-6-6-6-6-7-7-7-7-7-7-7-7-9-9-9-9-9-9-9-9--|
E|-4-4-4-4-4-4-4-4--------------------------------------------------|

Intro
Verse x4
Chorus

Extended Bridge

G|------------------------------------------------------------------|
D|------------------------------------------------------------------|
A|---------6-6-6-6-7-7-7-7-2-2-2-2---------6-6-6-6-7-7-7-7-2-2-2-2--|
E|-4-4-4-4-------------------------4-4-4-4--------------------------|

G|-----------------------------------------------------------------|
D|-----------------------------------------------------------------|
A|-----------------6-6-6-6-6-6-6-6-7-7-7-7-7-7-7-7-2-2-2-2-2-2-2-2-|
E|-4-4-4-4-4-4-4-4-------------------------------------------------|

G|-----------------------------------------------------------------|
D|-----------------------------------------------------------------|
A|-----------------6-6-6-6-6-6-6-6-7-7-7-7-7-7-7-7-9-9-9-9-9-9-9-9-|
E|-4-4-4-4-4-4-4-4-------------------------------------------------|

Outro

G|--------------------------------------------------------------------------|
D|--------------------------------------------------------------------------|
A|-------------------------------9-11-11-11-11-11-11-11-11-7-7-7-7-7-6-7-9--|
E|-7-7-7-7-7-7-7-7-9-9-9-9-9-7-9--------------------------------------------|

Please rate my tab..
This is my great tab

Close panel

Help Rate This Tab by Voting Up or Down

Vote Up Vote Down
Rating: -1 +1

Other Songs Like This

x

Copyright © 2019