Song: In Your World Live

Band: Muse

Rating: -1 +1 Views: 61

MUSE – IN YOUR WORLD (live from the hullabaloo soundtrack)

INTRO/CHORUS:
e-------------------------------------------------------------------
B-x--x--x---6---6---x--x--x---x---x---2---2---2---x---x---2---2---2-
G-5--5--5---5---5---5--5--5---1---1---2---2---2---1---1---2---2---2-
D-5--5--5---3---3---5--5--5---2---2---2---2---2---2---2---2---2---2-
A-3--3--3---3---3---3--3--3---2---2---x---x---x---2---2---x---x---x-
E-3--3--3---3---3---3--3--3---x---x---------------------------------



    

-----------------
--x-x-x-x--6---6-
--x-x-x-x--5---5-    
--x-x-x-x--3---3-
--x-x-x-x--3---3-
--x-x-x-x--3---3-





    

VERSE (tapping):
e-------------------------------------------------
B-------------------------------------------------
G-------------------------------------------------    3X
D-7p2---12p2---10p2---9p2---7p2---6p2---7p2---9p2-
A-------------------------------------------------
E-------------------------------------------------

THEN:
e--------------------------------------------------
B--------------------------------------------------
G--------------------------------------------------
D-7p2---6p2---7p2---9p2---10p2---12p2---10p2---9p2-
A--------------------------------------------------
E--------------------------------------------------

INTERLUDE:
e-----------------1---1--------1---1--------------
B-----1---1-------1------------3---------------3--
G-----2-----------2-------2----2-----------3------     
D-2---2-------3---3------------------------2------
A--------------------------------------2---2------
E-------------------------------------------------

PRE CHORUS:
e---------------------------------------------------
B---------------------------------------------------
G---------------------------------------------------
D-2--2--2--2--5--5--5--5--5--5--5--5--10--10--10--10
A-0--0--0--0--2--2--2--2--3--3--3--3---8---8---8---8
E---------------------------------------------------

-------------------------------------------
----------------------------x-x-x-x--6---6-
-1---1---1---1---1---1---1--x-x-x-x--5---5-    
-2---2---2---2---2---2---2--x-x-x-x--3---3-
-2---2---2---2---2---2---2--x-x-x-x--3---3-
----------------------------x-x-x-x--3---3-

ORDER:
INTRO 4x
VERSE 1x
INTERLUDE 2x
PRECHORUS 1x
CHORUS 4x
VERSE 1x
INTERLUDE 2x
PRECHORUS 1x
VERSE 1x
OUTRO

Close panel

Help Rate This Tab by Voting Up or Down

Vote Up Vote Down
Rating: -1 +1

Other Songs Like This

x

Copyright © 2019