Song: Dead Inside Bass

Band: Muse

Rating: -0 +0 Views: 40

Muse - Dead Inside

Tuning: Standard



    

Verse:
G|--5---55----5---55----8---88-------------|
D|--------------------------------8---88---|
A|-3-333--3--3-333--3--6-666--6------------|
E|-------------------------------6-666--6--|

Pre-Chorus:
G|-----------------------------------------------------------------------------------|
D|--6---66----5---55----10---1010----8---88----6---66----5---55----3---33----6---8---|
A|-----------------------------------------------------------------------------------|
E|-4-444--4--3-333--3--8--888----8--6-666--6--4-444--4--3-333--3--1-111--1--4-446-6--|

Bridge (after drum fill)                      (3:13)  
G|---------------------------------------|--------------------------------------------|
D|---------------------------------------|--------------------------------------------|
A|---------------------------------------|--------------------------------------------|
E|-8-88-88/4-44-44/11-1111-1111/6-66-66--|-88888888/44444444/1111111111111111/66666666|
                  (elevens not 1s)



    

Intro part/after "Dead Inside"
G|---------------------------------------|
D|---------------------------------------|
A|---------------------------------------|
E|-x-xxxxx------------------------------|
Place two fingers on the 2nd fret of the E string to mute it)\

Other Chorus
G|----------------------------------------|
D|--6---6----5---5----10---10----8---8----|
A|----------------------------------------|
E|-4-444-4443-333-3338--888--8886-666-666-|

Order:

Intro
Verse
Chorus
Verse
Chorus
Intro
Bridge 
Other Chorus
Intro

Close panel

Help Rate This Tab by Voting Up or Down

Vote Up Vote Down
Rating: -0 +0

Other Songs Like This

x

Copyright © 2017