Song: Bass So Low Bass

Band: Mxpx
Composed By: Mike Herrera

Rating: -1 +1 Views: 42



    

																				Band: mxpx
Album: secret weapon
Song: bass so low

Please rate

Intro 1 (0:05) x4



    

G|----------------------------|
D|----------------------------|
A|9-9-999-7-7---------------7-| 
E|------------9-7-7-777-9-9---|

Intro 2

G|----------------------------|
D|----------------------------|
A|9-9-999-7-7---------------7-| x3
E|------------9-7-7-777-9-9---|

G|----------------------------|
D|----------------------------|
A|9-9-999-7-7-----------------| 
E|------------9-7-7-777-8--9~-|

Verse (0:33)

G|---------------------------------|
D|----------11-11---7--7-7-7-------| 
A|-9--9-9-9-------9----------7-7-9-| x4
E|---------------------------------|

Pre chorus (0:45)

G|------------------------------------------------------------------|
D|------------------------------------------------------------------| 
A|-------------------------------------------------5555555544444444-|
E|-222222222222222255555555555555550000000000000000-----------------|


Intro 2 (0:59)
Verse (1:13)
Pre-chorus (1:27)
Intro 1 (1:39) x4

Bridge 1 (1:53)

G|----------------------------------|
D|----------------------------------|
A|-9-9999995-555555--------7-777777-|
E|-----------------5-555555---------|

G|----------------------------------|
D|----------------------------------|
A|-9-9999995-555555-----------------|
E|-----------------5-5555550-000000-|

G|-----------------|
D|-----------------| 
A|-555---555---7-7-|
E|----555---555----|

G|------------------------------------|
D|------------------------------------| 
A|-9999999999999999-555-----555---7-7-|
E|----------------------555----555----|

G|-------------------------------------------------46666666-|
D|----------------------------------------------------------| 
A|-999999999999999955555555--------5555555544444444---------|
E|-------------------------22222222-------------------------|

G|---------77-----|
D|-----------77-7-|
A|-79-9-79--------|
E|----------------|

G|----------------|
D|----------------|
A|-79-9-79--------|
E|-----------22---|

G|---------77-----|
D|-----------77-7-|
A|-79-9-79--------|
E|----------------|

G|----------------|
D|----------------|
A|-79-9-79--------|
E|----------2-2-2-|


Intro 1 (2:40) x2

Bridge 2 (2:46) I hope I

View Just Lyrics...

I'm breaking through computer screens
And running in your living room, a via-tele-digi wretch like me
Chasing all my dreams into a cable
Where they beam them out into a billion homes across the sea

Take to the streets tonight
To live your life, to do what's right
Sometimes you gotta stand and fight

Do you hear the bass so low?
Do you hear the bass so low?
Do you hear the bass so low?

I haven't had the pleasure of experience
Until I met the master of the never ending promises
'Cause every time I look into the mirror
All I'm seeing is a parody and image laughing back at me

Take me out when you go
'Cause I don't wanna miss the chance
To be part of the show, no

Do you hear the bass so low?
Do you hear the bass so low?
Do you hear the bass so low?
Do you hear the bass so low?

The signal's fading fast and I just don't know what to do
I'm waiting for a message on the radio from you
I'm waiting here for you, I'm waiting here for you

Do you hear the bass so low?
Do you hear the bass so low?
Do you hear the bass so low?
Do you hear the bass so low? Yeah

View Albums that This Song Appears On...

  • Secret Weapon

    Genre: Pop/Rock Label: EMI / Tooth & Nail Song Duration on Album: 3:37 Album Duration: 49:14

    Release Date: July 17, 2007

    Moods: Earnest, Exuberant, Brash, Rousing, Lively, Urgent, Reflective, Searching, Dramatic, Rowdy, Irreverent

    Styles: Alternative/Indie Rock, Punk-Pop

    Themes: Empowering

Close panel

Help Rate This Tab by Voting Up or Down

Vote Up Vote Down
Rating: -1 +1

Other Songs Like This

x

Copyright © 2019