Song: From The Screen To Your Stereo

Band: New Found Glory

Rating: -1 +1 Views: 41



    

																				Artist:A New Found Glory
Song: That Thing You Do
Cd:From your screen to the stereo
Tabbed By: Zach 

Buy the album and learn the songs it will impress all your friends!

(verse) 
e|--------------------------------------------------------------------| 
B|--------------------------------------------------------------------| 
G|--9-9-9-9-9-------------------9-9-9-9-9-----------------------------| 
D|--9-9-9-9-9--7-7-7---9-9-9----9-9-9-9-9---7-7-7---9-9-9-------------| 
A|--7-7-7-7-7--7-7-7---9-9-9----7-7-7-7-7---7-7-7---9-9-9-------------| 
E|-------------5-5-5---7-7-7----------------5-5-5---7-7-7-------------| 
you doing that thing you do...... 



    

(pre-chorus) 
e|--------------------------------------------------------------------| 
B|--------------------------------------------------------------------| 
G|--6-6-6-6-----------------------------------------------------------| 
D|--6-6-6-6---4-4-4-4---7-7-7-7---9-9-9-9-----------------------------| 
A|--4-4-4-4---4-4-4-4---7-7-7-7---9-9-9-9-----------------------------| 
E|------------2-2-2-2---5-5-5-5---7-7-7-7-----------------------------| 
into a million pieces......... 

(chorus) 
e|--------------------------------------------------------------------| 
B|--------------------------------------------------------------------| 
G|--6-6-6------------9-9-9----------9-9-9-9---------------------------| 
D|--6-6-6---4-4-4----9-9-9---7-7-7--9-9-9-9--7-7-7--9-9-9-------------| 
A|--4-4-4---4-4-4----7-7-7---7-7-7--7-7-7-7--7-7-7--9-9-9-------------| 
E|----------2-2-2------------5-5-5-----------5-5-5--7-7-7-------------| 
well I tried and tried to forget.... 

(bridge) 
e|--------------------------------------------------------------------| 
B|--------------------------------------------------------------------| 
G|-----------6-6-6-----------9-9-9------------------------------------| 
D|---7-7-7---6-6-6---4-4-4---9-9-9---7-7-7---9-9-9--------------------| 
A|---7-7-7---4-4-4---4-4-4---7-7-7---7-7-7---9-9-9--------------------| 
E|---5-5-5-----------2-2-2-----------5-5-5---7-7-7--------------------| 
I dont ask a lot of girls...... 

_____________________________________________________________________________

Artist:A New Found Glory
Song: Never Ending Story Theme Song
Cd:From your screen to the stereo
Tabbed By: Zach 

Buy the album and learn the songs it will impress all your friends!

Intro 
-------------------------------- 
-------------------------------- 
55555555-4/555555-5/77-55-99-777 
55555555-4/555555-5/77-55-99-777 
33333333-2/333333-3/55-33-77-555 
-------------------------------- 

Verse (Palm Muted) 
---------------------------------- 
---------------------------------- 
55555555-------------------------- 
55555555--55555555-3333333377-55-- 
333333330-5555555503333333377-55-- 
--------0-3333333301111111155-33-- 

Pre-Courus 
------------------------------ 
------------------------------ 
88888888---------------------- 
88888888666688888------------- 
66666666666688888------------- 
--------444466666------------- 

------------------------------ 
------------------------------ 
88888555555------------------- 
888883333336666688888888------ 
666663333336666688888888------ 
-----------4444466666666------ 

Courus 
Gtr1 
---------------------------------- 
---------------------------------- 
55555555-------------------------- 
55555555--55555555-33-x-77-x-55-- 
333333330-55555555033-x-77-x-55-- 
--------0-33333333011-x-55-x-33-- 
Gtr 2 
---------------------------------- 
---------------------------------- 
55555555-------------------------- 
55555555--55555555-3-2-3-2-2------ 
333333330-55555555--------5--5-3-5        
--------0-33333333----------------    

Little alternate thingy for GTR2 Second part 
--------------------------------- 
--------------------------------- 
-3-1-0-1-0-0---------------------                              
1---------3-3-1-3---------------- 
--------------------------------- 
---------------------------------                         
                                  
break 
------------------------- 
------------------------- 
------------------------- 
1212-121212-121212-121212 
1010-101010-101010-101010 
------------------------- 

End 
--------------------------------- 
--------------------------------- 
-------------------------------55 
33-x-77-x-55--x-33-x-77-x-55---55 
33-x-77-x-55--x-33-x-77-x-55---33 
11-x-55-x-33--x-11-x-55-x-33----- 

Structure 

Intro X2 
Verse X2 
Pre Courus 
Courus X 2 
VerseX3 
Pre Courus 
Courus X2 
Course alt X2 
Break 
Verse X2 
Pre Courus 
Courus X4 
End 

__________________________________________________________________________________
Artist:A New Found Glory
Song: I Don't Want To Miss A Thing
Cd:From your screen to the stereo
Tabbed By: Zach 

Buy the album and learn the songs it will impress all your friends!

intro  
e------------------------------------------------|  
b------------------------------------------------|  
g--7~------------2~------9~----5~----7~--|  
d--7~----5~----2~------9~----5~----7~--|  
a--7~----5~----2~------9~----5~----7~--|  
e--5~----3~----0~------7~----3~----5~--|  

melody line  
e--------------------------------------------  
b--------------------------------------------  
g--6-6-6-6-6-7-7-7-7-7-9-9-9-9-9-5-5-5-5-5---  
d--7-7-7-7-7-7-7-7-7-7-9-9-9-9-9-5-5-5-5-5---  
a--7-7-7-7-7-5-5-5-5-5-7-7-7-7-7-3-3-3-3-3---  
e--5-5-5-5-5---------------------------------  

chorus and intro are the same but they play this in the song at one time in  
the middle.  
e----------------------------------  
b----------------------------------  
g----------------------------------  
d-2-2222227-7777775-5555559-999999- 
a-2-2222227-7777775-5555559-999999-  
e-0-0000005-5555553-3333337-777777-  
____________________________________________________________________________________

Artist:A New Found Glory
Song: The Goonies "R" Good Enough
Cd:From your screen to the stereo
Tabbed By: Zach 

Buy the album and learn the songs it will impress all your friends!


intro 
e|------------------------------ 
B|------------------------------ 
G|----6------------------------- 
D|----6----6---9---------------- 
A|----4----6---9---------------- 
E|-------- -4---7--------------- 

verse 

e|---------------------------- 
B|---------------------------- 
G|------4-6---4--------------- 
D|--2--4-6---4---------------- 
A|--2--2-4---2---------------- 
E|--0------------------------- 

pre chorus 

e|------------------------| 
B|------------------------| 
G|--2---4-----------------| 
D|--2---4---2---4-6-------| 
A|--0---2---2---4-6-------| 
E|----------0---2-4-------| 

chorus 

e|----------------------------- 
B|----------------------------- 
G|----------2--4--------2------ 
D|--2---6---2--4----6---2------ 
A|--2---6---0--2----6---0------ 
E|--0---4-----------4---------- 

_________________________________________________________________________________ 

Artist:A New Found Glory
Song: Glory Of Love
Cd:From your screen to the stereo
Tabbed By: Zach 

Buy the album and learn the songs it will impress all your friends!

Intro/verse: 
--------------------------
--------------------------
-5------55------55-4------
-5--5---55--33--55-4------
-3--5---33--33--33-2------
----3-------11------------

verse 2:
--------------------------
--------------------------
-5------------------------
-5--7--8--5--6--8--6--8---
-3--7--8--5--6--8--6--8---
----5--6--3--4/-6\-4/-6---

chorus:
----------------------------------------------------------------
----------------------------------------------------------------
-5-----------5-----7----------5-5-------------7-----5-----------
-5--3--2--5--5--7--7--5--7-7--5-5--3-3--6--7--7--5--5----3--5---
-3--3--2--5--3--7--5--5--7-7--3-3--3-3--6--7--5--5--3----3--5---
----1--0--3-----5-----3--5-5-------1-1--4--5-----3-------1--3---

bridge:
---------------------------------------------------------------------------
-------------------------------------------------------------*clap*--------
-------7--8--7--8--7---------7--8--10--8---------------5-5-----------5---5-
-3--6--7--8--7--8--7---3--6--7--8--10--8---5-----5-----5-5-----------5---5-
-3--6--5--6--5--6\-5---3--6--5--6--8---6---5-----5-----3-3-----------33333-
-1--4------------------1--4----------------3-----3-------------------------
___________________________________________________________________________________

Artist:A New Found Glory
Song: (Everything I Do) I Do IT For You
Cd:From your screen to the stereo
Tabbed By: Zach 

Buy the album and learn the songs it will impress all your friends!

Intro 

e---1-----1-----1------2--4--2--1---------------------------4---------| 
B-----2-----2-----2-------------------4-----4-----4-------4-----4----1| 
G----------------------------------------5-----5----5-----------------| 
D---------------------------------------------------------------------| 
A---------------------------------------------------------------------| 
E---------------------------------------------------------------------| 

e------------------------2---------1----------------------------------| 
B---2-----2-----2------2-----2--------------4----4--------------------| 
G-----3-----3-----3------------------------------5--------------------| 
D---------------------------------------------------------------------| 
A---------------------------------------------------------------------| 
E---------------------------------------------------------------------| 

Verses 

e|--------------------------------------------------------------------| 
B|--------------------------------------------------------------------| 
G|-----------------6-----------------6--------------------------------| 
D|-----------------6-----------------6--8---------------6-------------| 
A|-----------------4-----------------3--8---------------6-------------| 
E|--------------------------------------6---------------4-------------| 
    
e|--------------------------------------------------------------------| 
B|--------------------------------------------------------------------| 
G|----------------------------------6---------------------------------| 
D|--------------8-------------------6------6-6------------------------| 
A|--------------8-------------------4------6-6------------------------| 
E|--------------6--------------------------4-4------------------------| 

Chorus 

e|--------------------------------------------------------------------| 
B|--------------------------------------------------------------------| 
G|-------------6---------------6----------6----------6-6--------------| 
D|-------------6---------------6----------6----------6-6--------------| 
A|-------------4---------------3----------4----------4-4--------------| 
E|--------------------------------------------------------------------| 



  theres no love... 
e|---------------------------------------------------------------------------| 
B|---------------------------------------------------------------------------| 
G|-4-4-4-4-4-4-4-4-4-4-4-4---------------------------4-4-4-4-4-4-4-4-4-4-4-4-| 
D|-4-4-4-4-4-4-4-4-4-4-4-4--2-2-2-2-2-2-2-2-2-2-2-2--4-4-4-4-4-4-4-4-4-4-4-4-| 
A|-2-2-2-2-2-2-2-2-2-2-2-2--2-2-2-2-2-2-2-2-2-2-2-2--2-2-2-2-2-2-2-2-2-2-2-2-| 
E|--------------------------0-0-0-0-0-0-0-0-0-0-0-0--------------------------| 

e|---------------------------------------------------------------------------| 
B|---------------------------------------------------------------------------| 
G|--------------------------6-6-6-6-6-6-6-6-6-6-6----------------------------| 
D|-4-4-4-4-4-4-4-4-4-4-4-4--6-6-6-6-6-6-6-6-6-6-6--6-6-6-6-6-6-6-6-6-6-6-----| 
A|-4-4-4-4-4-4-4-4-4-4-4-4--4-4-4-4-4-4-4-4-4-4-4--6-6-6-6-6-6-6-6-6-6-6-----| 
E|-2-2-2-2-2-2-2-2-2-2-2-2-------------------------4-4-4-4-4-4-4-4-4-4-4-----| 

e|---------------------------------------------------------------------------| 
B|---------------------------------------------------------------------------| 
G|-8-8-8-8-8-8-8-8-8-8-8-8--6--6---------------------------------------------| 
D|-8-8-8-8-8-8-8-8-8-8-8-8--6--6--1--3--------1--3---------------------------| 
A|-6-6-6-6-6-6-6-6-6-6-6-6--4--4--------1--4--------1--4---------------------| 
E|---------------------------------------------------------------------------| 

Solo 

e|---------------------------------9---9-------------------------------------| 
B|---6-66--------------------6-9---9-BEND-9-h11-9----------------------------| 
G|--------8-6---6--8-6--6-6-----------------------------------10--10 \8-6----| 
D|-------------8--------8----------------------------------------------------| 
A|---------------------------------------------------------------------------| 
E|---------------------------------------------------------------------------| 


__________________________________________________________________________________


Artist:A New Found Glory
Song: My Heart Will Go On
Cd:From your screen to the stereo
Tabbed By: Zach 

Buy the album and learn the songs it will impress all your friends!

intro(0:04)
e:------------------------------
B:------------------------------
G:-------9----------------------
D:-------9-let ring-------------
A:-------7----------------------
E:------------------------------

second part (0:14)
e:------------------------------
B:------------------------------
G:--9--11----13--13---11--9-----
D:------------------------------
A:------------------------------
E:------------------------------

e:------------------------------
B:---12--10--9--5---------------
G:----------------6/4-----------
D:------------------------------
A:------------------------------
E:------------------------------

e:------------------------------
B:------------------------------
G:--9--11----13--13---11--9-----
D:------------------------------
A:------------------------------
E:------------------------------

e:------------------------------
B:---12--10--9--12--10--7-------
G:------------------------------
D:------------------------------
A:------------------------------
E:------------------------------

verse:
e:------------------------------
B:------------------------------
G:--9--------9------------------ listen for how many times to play chord
D:--9--9--7--9--7---------------
A:--7--9--7--7--7---------------
E:-----7--5-----5---------------


e:------------------------------
B:------------------------------
G:--9--------------------------- listen for how many times to play chord
D:--9--9--7---------------------
A:--7--9--7---------------------
E:-----7--5---------------------

chorus:
e:------------------------------
B:------------------------------
G:--9--------------------------- listen for how many times to play chord
D:--9--9--7--9------------------
A:--7--9--7--9------------------
E:-----7--5--7------------------

e:------------------------------
B:------------------------------
G:--9--------------------------- listen for how many times to play chord
D:--9--9--7---------------------
A:--7--9--7---------------------
E:-----7--5---------------------

solo:

Just play with the intro and you got it.

Ending: 
e:------------------------------
B:------------------------------
G:--9--11----13--13---11--9-----
D:------------------------------
A:------------------------------
E:------------------------------

e:------------------------------
B:---12--10--9--5---------------
G:----------------6/4-----------
D:------------------------------
A:------------------------------
E:------------------------------

That's it just listen and you can figure when to play what.

_______________________________________________________________________________

That's all Hope You find it helpful, I know there may be some mistakes, if there are its not that hard to tab
them yourself.

Close panel

Help Rate This Tab by Voting Up or Down

Vote Up Vote Down
Rating: -1 +1

Other Songs Like This

x

Copyright © 2019