Song: Me Im Not

Band: Nine Inch Nails
Composed By: Trent Reznor

Rating: -0 +0 Views: 82



    

																				Standard tuning (yeah, I'm surprised too)


Synth bass plays G note thru the whole song



    


 Chorus

E|-------------------------------------------|
B|-------------------------------------------|
G|-12-12---12---12---12-12-12---12---12---12-|
D|-------------------------------------------|
A|-10-10---10---10---10-10-10---10---10---10-|
E|-------------------------------------------|

E|-------------------------------------------|
B|-------------------------------------------|
G|-12-14---14---14---14-14-14---14--------14-|
D|-------------------------------------------|
A|-10-12---12---12---12-12-12---12--------12-|
E|-------------------------------------------|

E|-------------------------------------------|
B|-------------------------------------------|
G|-11-11---11---11---11-11-11---11---11------|
D|-------------------------------------------|
A|-9--9----9----9----9--9--9----9----9-------|
E|-------------------------------------------|

E|-------------------------------------------|
B|-------------------------------------------|
G|-10-10---10---10---10-10-10---10-----------|
D|-------------------------------------------|
A|-8--8----8----8----8--8--8----8------------|
E|-------------------------------------------|




 04:06

E|-------------------------------------------|
B|-------------------------------------------|
G|-12-12-12-12-12---1--0--0--0--12---1---0---|
D|-------------------------------------------|
A|-------------------------------------------|
E|-------------------------------------------|

E|-------------------------------------------|
B|-------------------------------------------|
G|-0-----1-----0----0--12-----12---12---12\10|
D|-------------------------------------------|
A|------------------------------------13-----|
E|-------------------------------------------|


 04:34

E|--------------------------------------------------------------|
B|--------------------------------------------------------------|
G|-12-12-12-12-12-12-12-12-12b13-12b13-12b13-12b13-12b14--------|
D|--------------------------------------------------------------|
A|--------------------------------------------------------------|
E|--------------------------------------------------------------|

View Albums that This Song Appears On...

  • Year Zero

    Genre: Pop/Rock Label: Universal Song Duration on Album: 4:52 Album Duration: 01:03:42

    Release Date: April 17, 2007

    Moods: Angry, Angst-Ridden, Bleak, Brooding, Complex, Confident, Confrontational, Dramatic, Gloomy, Indulgent, Intense, Literate, Manic, Ominous, Paranoid, Somber, Spooky, Sprawling, Tense/Anxious, Theatrical, Unsettling, Visceral, Volatile

    Styles: Alternative Metal, Alternative/Indie Rock, Heavy Metal, Industrial, Industrial Metal

  • Y34RZ3R0R3M1X3D

    Genre: Pop/Rock Label: Nothing Song Duration on Album: 14:01 Album Duration: 01:11:14

    Release Date: November 20, 2007

    Moods: Angry, Angst-Ridden, Bleak, Brooding, Complex, Confident, Confrontational, Dramatic, Gloomy, Indulgent, Intense, Literate, Manic, Ominous, Paranoid, Somber, Spooky, Sprawling, Tense/Anxious, Theatrical, Unsettling, Visceral, Volatile

    Styles: Alternative Metal, Alternative/Indie Rock, Heavy Metal, Industrial, Industrial Metal

Close panel

Help Rate This Tab by Voting Up or Down

Vote Up Vote Down
Rating: -0 +0

Other Songs Like This

x

Copyright © 2017