Song: Perfect Gouvernment Bass

Band: Nofx

Rating: -0 +0 Views: 40



    

																				Intro
G-----------------------------------------|
D---5---4---3-----------------------------|
A----------------5----3---2---------------|
E-----------------------------5--2--3-----|

Guitar solo
G-----------------------------------------|
D-----------------------------------------|
A--------------3--2---5--3----------------|
E---3--2--0-------------------------------|

Soft part                  freedom
G-----------------------------------------|
D-----------------------------------------|
A---------5-7------3---2---5---3----------|
E--3---2----------------------------------|



    

    anyway
G-----------------------------------------|
D-----------------------------------------|
A-------------3---2---5--3----------------|
E---3--2--0-------------------------------|

    How did the cat...
G-----------------------------------------|
D-----------------------------------------|
A-----------3--2---5----------------------|
E---3--2--0-------------------------------|

   'cause...
G-----------------------------------------|
D-----------------------------------------|
A-----2--3--4-------5---3-----------------|
E--3------------3-------------------------|

You point your fucking finger...
G-----------------------------------------|
D-----------------------------------------|
A-------------3---2---5--3----------------|
E---3--2--0-------------------------------|

G-----------------------------------------|
D-----------------------------------------|
A-----------3--2---5---3------------------|
E---3--2--0-------------------------------|

G-----------------------------------------|
D-----------------------------------------|
A------2---3---4--------------------------|
E--3--------------------------------------|

How can they sleep at night (Tacet)

    How did the cat...
G-----------------------------------------|
D-----------------------------------------|
A-----------3-----------3------------3----|
E---3--2--0----3--2--0-----3--2--0--------|

G-----------------------------------------|
D-----------------------------------------|
A----------3------------------------------|
E--3---2----------------------------------|

Solo 2
G-----------------------------------------|
D-----------------------------------------|
A-------------5--3--2---------------------|
E--3---2---0------------5-2-3-------------|

Close panel

Help Rate This Tab by Voting Up or Down

Vote Up Vote Down
Rating: -0 +0

Other Songs Like This

x

Copyright © 2017