Song: Charactarantula Talking To You And The Intake Of Glass Bass

Band: Norma Jean
Composed By: Norma Jean

Rating: -0 +0 Views: 89



    

																				#----------------------------------PLEASE NOTE---------------------------------#
#This file is the author's own work and represents their interpretation of the #
#song. You may only use this file for private study, scholarship, or research. #
#------------------------------------------------------------------------------#

CHARACTARANTULA - TALKING TO YOU AND THE INTAKE OF GLASS (Bassline)
As recorded by Norma Jean
(From the 2005 Album O' GOD THE AFTERMATH)

Transcribed by David Ecker



    
	

Words and Music by Norma Jean
Arranged by Norma Jean

Gtr I (C# G# C# F#) - 'Jake'

 I Will...
  Q=144
 2/4    5/4                         7/4
  Gtr I
  H      Q.    S S E S S Q.    S S   Q.    S S E S S E S S E S S Q.    S S
|------|---------------------------|-----------------------------------------|
|------|---------------------------|-----------------------------------------|
|------|---------------------------|-----------------------------------------|
|------|-2b3---0-0-3-0-0-2b3---0-0-|-2b3---0-0-3-0-0-2-0-0-3-0-0-2b3---0-0---|


 5/4                         7/4                                   2/4
  Q.    S S E S S Q.    S S   Q.    S S E S S E S S E S S Q.    E   H
|---------------------------|-------------------------------------|------|
|---------------------------|-------------------------------------|------|
|---------------------------|-------------------------------------|------|
|-2b3---0-0-3-0-0-2b3---0-0-|-2b3---0-0-3-0-0-2-0-0-3-0-0-2b3---0-|-0----|


 Verse
 5/4                         7/4
  Q.    S S E S S Q.    S S   Q.    S S E S S E S S E S S Q.    S S
|---------------------------|----------------------------------------|
|---------------------------|----------------------------------------|
|---------------------------|----------------------------------------|
|-2b3---0-0-3-0-0-2b3---0-0-|-2b3---0-0-3-0-0-2-0-0-3-0-0-2b3---0-0--|


 5/4                         7/4                                   2/4
  Q.    S S E S S Q.    S S   Q.    S S E S S E S S E S S Q.    E   H
|---------------------------|-------------------------------------|------|
|---------------------------|-------------------------------------|------|
|---------------------------|-------------------------------------|------|
|-2b3---0-0-3-0-0-2b3---0-0-|-2b3---0-0-3-0-0-2-0-0-3-0-0-2b3---0-|-0----|


 Thug'n The Bass
 5/4                         7/4
  Q.    S S E S S Q.    S S   Q.    S S E S S E S S E S S Q.    S S
|---------------------------|----------------------------------------|
|---------------------------|----------------------------------------|
|---------------------------|----------------------------------------|
|-2b3---0-0-3-0-0-2b3---0-0-|-2b3---0-0-3-0-0-2-0-0-3-0-0-2b3---0-0--|


 5/4                         7/4                                   2/4
  Q.    S S E S S Q.    S S   Q.    S S E S S E S S E S S Q.    E   H
|---------------------------|-------------------------------------|------|
|---------------------------|-------------------------------------|------|
|---------------------------|-------------------------------------|------|
|-2b3---0-0-3-0-0-2b3---0-0-|-2b3---0-0-3-0-0-2-0-0-3-0-0-2b3---0-|-0----|


 Intro Again
 5/4                         7/4
  Q.    S S E S S Q.    S S   Q.    S S E S S E S S E S S Q.    S S
|---------------------------|----------------------------------------|
|---------------------------|----------------------------------------|
|---------------------------|----------------------------------------|
|-2b3---0-0-3-0-0-2b3---0-0-|-2b3---0-0-3-0-0-2-0-0-3-0-0-2b3---0-0--|


 5/4                         7/4                                   2/4
  Q.    S S E S S Q.    S S   Q.    S S E S S E S S E S S Q.    E   H
|---------------------------|-------------------------------------|------|
|---------------------------|-------------------------------------|------|
|---------------------------|-------------------------------------|------|
|-2b3---0-0-3-0-0-2b3---0-0-|-2b3---0-0-3-0-0-2-0-0-3-0-0-2b3---0-|-0----|


   Everybody Dance
   4/4
    E. E. S S E S S E S S   E. E. S S E S S E S S
||------------------------|------------------------||
||o-----------------------|-----------------------o||
||o-----------------------|-----------------------o||
||--2--2--0-0-2-0-0-2-0-0-|-2--2--0-0-2-0-0-2-0-0--||


  E. E. E E E E E   E. E. E E E E E   E. E. S S E S S E S S
|-----------------|-----------------|-----------------------|
|-----------------|-----------------|-----------------------|
|-----------------|-----------------|-----------------------|
|-0--0--0-0---0---|-0--0--0-0---0---|-5--5--0-0-5-0-0-5-0-0-|


  E. E. S S E S S E S S   E. E. S S E S S E S S   E. E. S S E S S E S S
|-----------------------|-----------------------|------------------------|
|-----------------------|-----------------------|------------------------|
|-----------------------|-----------------------|------------------------|
|-8--8--0-0-8-0-0-8-0-0-|-8--8--0-0-8-0-0-8-0-0-|-8--8--0-0-8-0-0-8-0-0--|


 Octavious Maximus
 4/4        3/4
  W          H    E E
|----------|----------|
|----------|----------|
|----------|------1---|
|----------|----------|


   4/4               3/4
    E E E E E E E E   E E E E E E  4x
||------------------|--------------||
||o-----------------|-------------o||
||o-0---0-----0-----|---0-----1---o||
||--------1-----3-0-|-----3-0------||


 Nigga Whaaatt
 4/4               3/4           4/4               3/4
  E E E E E E E E   E E E E E E   E E E E E E E E   E E E E E E

|-----------------|-------------|-----------------|--------------|
|-----------------|-------------|-----------------|--------------|
|-----------------|-------------|-----------------|--------------|
|-0---0-0---0-0-0-|---0-0-0-0---|-0---0-0---0-0-0-|---0-0-0-0----|


 4/4               3/4           4/4
  E E E E E E E E   E E E E E E   E E E E E E E E   E E E E H
|-----------------|-------------|-----------------|--------------|
|-----------------|-------------|-----------------|--------------|
|-----------------|-------------|-----------------|--------------|
|-0---0-0---0-0-0-|---0-0-0-0---|-0---0-0---0-0-0-|---0-0-0-0----|


   Octavious Maximus II
   4/4
    Q  E Q  E E E   +E  E E E H      Q  E Q  E E E   +E  E E E H
||----------------|----------------|---------------|-----------------||
||o---------------|----------------|---------------|----------------o||
||o-5--5-6--5-6-5-|-(5)-5-6-5------|-5--5-6--5-6-5-|-(5)-5-6-5------o||
||----------------|-----------0----|---------------|-----------0-----||


 Another Intro!
 5/4                         7/4
  Q.    S S E S S Q.    S S   Q.    S S E S S E S S E S S Q.    S S
|---------------------------|----------------------------------------|
|---------------------------|----------------------------------------|
|---------------------------|----------------------------------------|
|-2b3---0-0-3-0-0-2b3---0-0-|-2b3---0-0-3-0-0-2-0-0-3-0-0-2b3---0-0--|


 5/4                         7/4                                   2/4
  Q.    S S E S S Q.    S S   Q.    S S E S S E S S E S S Q.    E   H
|---------------------------|-------------------------------------|------|
|---------------------------|-------------------------------------|------|
|---------------------------|-------------------------------------|------|
|-2b3---0-0-3-0-0-2b3---0-0-|-2b3---0-0-3-0-0-2-0-0-3-0-0-2b3---0-|-0----|


   Replizzle
   4/4
    E. E. S S E S S E S S   E. E. S S E S S E S S
||------------------------|------------------------||
||o-----------------------|-----------------------o||
||o-----------------------|-----------------------o||
||--2--2--0-0-2-0-0-2-0-0-|-2--2--0-0-2-0-0-2-0-0--||


    E. E. S S S S E E E   E. E. S S S S E E E
||----------------------|----------------------||
||o---------------------|---------------------o||
||o---------------------|---------------------o||
||--0--0--0-0-0-0---0---|-0--0--0-0-0-0---0----||


    H     a  H    a   H     a  H    a
||------------------|------------------||
||o-----------------|-----------------o||
||o-----------------|-----------------o||
||--2S===14-14S===2-|-2S===14-14S===2--||


  E. E. S S S S E E E   E. E. S S S S E E E   E. E. S S E S S E S S
|---------------------|---------------------|-----------------------|
|---------------------|---------------------|-----------------------|
|---------------------|---------------------|-----------------------|
|-0--0--0-0-0-0---0---|-0--0--0-0-0-0---0---|-5--5--0-0-5-0-0-5-0-0-|


  E. E. S S E S S E S S   E. E. S S E S S E S S
|-----------------------|-----------------------|
|-----------------------|-----------------------|
|-----------------------|-----------------------|
|-8--8--0-0-8-0-0-8-0-0-|-8--8--0-0-8-0-0-8-0-0-|


  E. E. S S E S S E S S   E. E. S S E E Q
|-----------------------|-------------------|
|-----------------------|-------------------|
|-5--5------5-----5-----|-5--5------5-5-5\--|
|-------0-0---0-0---0-0-|-------0-0---------|


 Throwdown
 4/4               3/4           4/4
  E E E E E E E E   E E E E E E   E E E E E E E E   E E E E E E E E

|-----------------|-------------|-----------------|-----------------|
|-----------------|-------------|-----------------|-----------------|
|-----------------|-------------|-----------------|-----------------|
|-0---0-0---0-0-0-|---0-0-0-0---|-0---0-0---0-0-0-|---0-0-0-0---0---|


 4/4               3/4           4/4                                 2/4
  E E E E E E E E   E E E E E E   E E E E E E E E   E E E E E E E E   H
|-----------------|-------------|-----------------|-----------------|-------|
|-----------------|-------------|-----------------|-----------------|-------|
|-----------------|-------------|-----------------|-----------------|-------|
|-0---0-0---0-0-0-|---0-0-0-0---|-0---0-0---0-0-0-|---0-0-0-0---0---|-8\----|


 Chuga Chuga
  Q=72
 4/4                 5/4
  E S Q.   S S S Q    H    +S  S S S Q  Q
|-------------------|-----------------------|
|-------------------|-----------------------|
|-------------------|-----------------------|
|-0-0-0----0-0-0-0--|-0----(0)-0-0-0-0--8\--|


 4/4
  E S Q.   S S S Q    H    +S  S S S Q
|-------------------|--------------------|
|-------------------|--------------------|
|-------------------|--------------------|
|-0-0-0----0-0-0-0--|-0----(0)-0-0-0-8\--|


   Get ready for it
    Q=152
   4/4
    E E E E E E E E   E E E E E E E E   E E E E E E E E   E E E E E E E E

||------------------|-----------------|-----------------|-------------------||
||o-----------------|-----------------|-----------------|------------------o||
||o-----------------|-----------------|-----------------|------------------o||
||--0-3-5-0-1-3-0-3-|-0-3-5-0-1-3-3-3-|-0-3-5-0-1-3-0-3-|-0-3-5-0-1-3-3-3---||


 Enter The Pit
  E E Q  S S S S Q    E E E E H      E E  H.         +H      H
|-------------------|--------------|--------------|----------------|
|-------------------|--------------|--------------|----------------|
|-------------------|--------------|--------------|----------------|
|-0-0-0--0-0-0-0-0--|-0-0-0-0------|---2S14-------|-(14)----12\----|


  E E Q  S S S S Q    E E E E H      E E H    E E   Q  E Q  E Q
|-------------------|--------------|--------------|----------------|
|-------------------|--------------|--------------|----------------|
|-------------------|--------------|--------------|----------------|
|-0-0-0--0-0-0-0-0--|-0-0-0-0------|---0--------0-|----0----0------|


  E E Q  S S S S Q    E E E E H      E E  H.         +H      H
|-------------------|--------------|--------------|----------------|
|-------------------|--------------|--------------|----------------|
|-------------------|--------------|--------------|----------------|
|-0-0-0--0-0-0-0-0--|-0-0-0-0------|---2S14-------|-(14)----12\----|


  E E Q  S S S S Q    E E E E H      E E E E E E E E   E E E E E E E E
|-------------------|--------------|-----------------|-------------------|
|-------------------|--------------|-----------------|-------------------|
|-------------------|--------------|-----------------|-------------------|
|-0-0-0--0-0-0-0-0--|-0-0-0-0------|---3-5-0-1-3-0-3-|-0-3-5-0-1-3-3-3---|


  E E Q  S S S S Q    E E E E H      E E H    E E   Q  E Q  E Q
|-------------------|--------------|--------------|----------------|
|-------------------|--------------|--------------|----------------|
|-------------------|--------------|--------------|----------------|
|-0-0-0--0-0-0-0-0--|-0-0-0-0------|---0--------0-|----0----0------|


  E E Q  S S S S Q    E E E E H      E E  H.         +H      H
|-------------------|--------------|--------------|----------------|
|-------------------|--------------|--------------|----------------|
|-------------------|--------------|--------------|----------------|
|-0-0-0--0-0-0-0-0--|-0-0-0-0------|---2S14-------|-(14)----12\----|


  E E E E E E E E   E E E E E E E E   E E E E E E E E   E E E E E E E E

|-----------------|-----------------|-----------------|-----------------|
|-----------------|-----------------|-----------------|-----------------|
|-----------------|-----------------|-----------------|-----------------|
|-0-3-5-0-1-3-0-3-|-0-3-5-0-1-3-3-3-|-0-3-5-0-1-3-0-3-|-0-3-5-0-1-3-3-3-|


  W          W          W          W
|----------|----------|----------|------|
|----------|----------|----------|------|
|----------|----------|----------|------|
|----------|----------|----------|------|


 Outro
 5/4                         7/4
  Q.    S S E S S Q.    S S   Q.    S S E S S E S S E S S Q.    S S
|---------------------------|----------------------------------------|
|---------------------------|----------------------------------------|
|---------------------------|----------------------------------------|
|-2b3---0-0-3-0-0-2b3---0-0-|-2b3---0-0-3-0-0-2-0-0-3-0-0-2b3---0-0--|


 5/4                         7/4                                   2/4
  Q.    S S E S S Q.    S S   Q.    S S E S S E S S E S S Q.    E   H
|---------------------------|-------------------------------------|------*|
|---------------------------|-------------------------------------|------*|
|---------------------------|-------------------------------------|------*|
|-2b3---0-0-3-0-0-2b3---0-0-|-2b3---0-0-3-0-0-2-0-0-3-0-0-2b3---0-|-0----*|



Duration Legend
---------------
W - whole; H - half; Q - quarter; E - 8th; S - 16th; T - 32nd; X - 64th; a - acciaccatura
+ - note tied to previous; . - note dotted; .. - note double dotted
Uncapitalized letters represent notes that are staccato (1/2 duration)
Irregular groupings are notated above the duration line
Duration letters will always appear directly above the note/fret number it represents the
duration for.  Duration letters with no fret number below them represent rests.  Multi-
bar rests are notated in the form Wxn, where n is the number of bars to rest for.  Low
melody durations appear below the staff

Tablature Legend
----------------
 h   - hammer-on
 p   - pull-off
 b   - bend
 pb  - pre-bend
 r   - bend release (if no number after the r, then release immediately)
 /\  - slide into or out of (from/to "nowhere")
 s   - legato slide
 S   - shift slide
 - natural harmonic
[n]  - artificial harmonic
n(n) - tapped harmonic
 ~   - vibrato
 tr  - trill
 T   - tap
 TP  - trem. picking
 PM  - palm muting
\n/  - tremolo bar dip; n = amount to dip
 \n  - tremolo bar down
 n/  - tremolo bar up
/n\  - tremolo bar inverted dip
 =   - hold bend; also acts as connecting device for hammers/pulls
 <> - volume swell (louder/softer)
 x   - on rhythm slash represents muted slash
 o   - on rhythm slash represents single note slash

Misc Legend
-----------
 |  - bar
||  - double bar
||o - repeat start
o|| - repeat end
*|  - double bar (ending)
 :  - bar (freetime)
 $  - Segno
 &  - Coda
Tempo markers -  = BPM(8/16=s8/s16), where s8 = swing 8ths, s16 = swing 16ths

View Albums that This Song Appears On...

  • O God, The Aftermath

    Genre: Pop/Rock Label: Abacus Album Duration: 47:42

    Release Date: March 1, 2005

    Moods: Menacing, Raucous, Volatile, Aggressive, Angst-Ridden, Anguished/Distraught, Bitter, Cathartic, Confrontational, Dramatic, Earnest, Exuberant, Fiery, Harsh, Reverent, Rousing, Spiritual, Tense/Anxious, Urgent, Visceral, Yearning

    Styles: Heavy Metal, Alternative/Indie Rock, Post-Hardcore

    Themes: Empowering, Reflection, The Creative Side

Close panel

Help Rate This Tab by Voting Up or Down

Vote Up Vote Down
Rating: -0 +0

Other Songs Like This

x

Copyright © 2017