Song: Waiting For The Rapture

Band: Oasis
Composed By: Noel Gallagher

Rating: -0 +0 Views: 28

-------------------------------------------------------------------------------
                             WAITING FOR THE RAPTURE - OASIS
-------------------------------------------------------------------------------
Tabbed by: mikey2004
Email:

Tuning:Drop D, DADGBE



    

Chords;

A5 7-7-7-X-X-X
C5 10-10-10-X-X-X
D5 12-12-12-X-X-X
G5 5-5-5-X-X-X
F5 3-3-3-X-X-X

e|---------------------------------------------------------------------------|
B|---------------------------------------------------------------------------|
G|---------------------------------------------------------------------------|
D|---5-----7-----7-----7-----5--7-----7-----7-----7--5-----------------------|
A|---5-----7-----7-----7-----5--7-----7-----7-----7--5-----------------------|
E|---5--7--7--7--7--7--7--7--5--7--7--7--7--7--7--7--5-----------------------|



    

e|---------------------------------------------------------------------------|
B|---------------------------------------------------------------------------|
G|---------------------------------------------------------------------------|
D|---7-----7-----7-----7--5--7-----7-----7-----7--5--------------------------|
A|---7-----7-----7-----7--5--7-----7-----7-----7--5--------------------------|
E|---7--7--7--7--7--7--7--5--7--7--7--7--7--7--7--5--------------------------|
   I  still dont know.....
e|---------------------------------------------------------------------------|
B|---------------------------------------------------------------------------|
G|---------------------------------------------------------------------------|
D|---7-----7-----7-----7--0--0-----0-----0-----0--2--3-----3-----3-----3--5--|
A|---7-----7-----7-----7--0--0-----0-----0-----0--2--3-----3-----3-----3--5--|
E|---7--7--7--7--7--7--7--0--0--0--0--0--0--0--0--2--3--3--3--3--3--3--3--5--|
                           She took my hand...
e|---------------------------------------------------------------------------|
B|---------------------------------------------------------------------------|
G|---------------------------------------------------------------------------|
D|---7-----7-----7-----7--5--7-----7-----7-----7--0--0-----0-----0-----0--2--|
A|---7-----7-----7-----7--5--7-----7-----7-----7--0--0-----0-----0-----0--2--|
E|---7--7--7--7--7--7--7--5--7--7--7--7--7--7--7--0--0--0--0--0--0--0--0--2--|
     She put an apple.....
e|---------------------------------------------------------------------------|
B|---------------------------------------------------------------------------|
G|---------------------------------------------------------------------------|
D|---3-----3-----3-----3--5--7-----7-----7-----7--5--------------------------|
A|---3-----3-----3-----3--5--7-----7-----7-----7--5--------------------------|
E|---3--3--3--3--3--3--3--5--7--7--7--7--7--7--7--5--------------------------|
                                                         Come get me off...
e|---------------------------------------------------------------------------|
B|---------------------------------------------------------------------------|
G|---------------------------------------------------------------------------|
D|---10------10------10------10--0--7-----7-----7-----7---0--3-----3---------|
A|---10------10------10------10--0--7-----7-----7-----7---0--3-----3---------|
E|---10--10--10--10--10--10--10--0--7--7--7--7--7--7--7---0--3--3--3--3------|

e|---------------------------------------------------------------------------|
B|---------------------------------------------------------------------------|
G|---------------------------------------------------------------------------|
D|---3-----3--5--7-----7-----7-----7--5--10------10------10------10--0-------|
A|---3-----3--5--7-----7-----7-----7--5--10------10------10------10--0-------|
E|---3--3--3--5--7--7--7--7--7--7--7--5--10--10--10--10--10--10--10--0-------|
                      Come feed me...
e|---------------------------------------------------------------------------|
B|---------------------------------------------------------------------------|
G|---------------------------------------------------------------------------|
D|---7-----7-----7-----7--0---3-----3-----3-----3--5--7--------5-------------|
A|---7-----7-----7-----7--0---3-----3-----3-----3--5--7--------5-------------|
E|---7--7--7--7--7--7--7--0---3--3--3--3--3--3--3--5--7--------5-------------|
   She came up to...
e|---------------------------------------------------------------------------|
B|---------------------------------------------------------------------------|
G|---------------------------------------------------------------------------|
D|---7-----7-----7-----7--0-----0-----0-----0--2---3-----3-----3-----3--5----|
A|---7-----7-----7-----7--0-----0-----0-----0--2---3-----3-----3-----3--5----|
E|---7--7--7--7--7--7--7--0--0--0--0--0--0--0--2---3--3--3--3--3--3--3--5----|

e|---------------------------------------------------------------------------|
B|---7b9--7------------------------------------------------------------------|
G|---7b9--7--5---------------------------------------------------------------|
D|--------------7--7-----7-----7-----7--0--0-----0-----0-----0--2--3---------|
A|-----------------7-----7-----7-----7--0--0-----0-----0-----0--2--3---------|
E|-----------------7--7--7--7--7--7--7--0--0--0--0--0--0--0--0--2--3--3------|
                                 She said im tired......
e|---------------------------------------------------------------------------|
B|---------------------------------------------------------------------------|
G|---------------------------------------------------------------------------|
D|---3-----3-----3--5--7-----7-----7-----7--7/--10------10------10-----------|
A|---3-----3-----3--5--7-----7-----7-----7--7/--10------10------10-----------|
E|---3--3--3--3--3--5--7--7--7--7--7--7--7--7/--10--10--10--10--10--10-------|

e|---------------------------------------------------------------------------|
B|---------------------------------------------------------------------------|
G|---------------------------------------------------------------------------|
D|---10--10--7------7-----7-----7--0--3-----3-----3-----3--5-----------------|
A|---10--10--7------7-----7-----7--0--3-----3-----3-----3--5-----------------|
E|---10--10--7---7--7--7--7--7--7--0--3--3--3--3--3--3--3--5-----------------|
                       Im wired..
e|---------------------------------------------------------------------------|
B|---------------------------------------------------------------------------|
G|---------------------------------------------------------------------------|
D|---7-----7-----7-----7--5--10------10------10------10--10--7-----7-----7---|
A|---7-----7-----7-----7--5--10------10------10------10--10--7-----7-----7---|
E|---7--7--7--7--7--7--7--5--10--10--10--10--10--10--10--10--7--7--7--7--7---|
    Well heaven...
e|---------------------------------------------------------------------------|
B|---------------------------------------------------------------------------|
G|---------------------------------------------------------------------------|
D|------7--0--3-----3-----3-----3--5--2-----2-----2-----2--0--2-----2-----2--|
A|------7--0--3-----3-----3-----3--5--2-----2-----2-----2--0--2-----2-----2--|
E|---7--7--0--3--3--3--3--3--3--3--5--2--2--2--2--2--2--2--0--2--2--2--2--2--|
             Instrumental
e|---------------------------------------------------------------------------|
B|---------------------------------------------------------------------------|
G|---------------------------------------------------------------------------|
D|------2--0--10------10------10------10--12--12--7--7--7--7--7--7--5--5--3--|
A|------2--0--10------10------10------10--12--12--7--7--7--7--7--7--5--5--3--|
E|---2--2--0--10--10--10--10--10--10--10--12--12--7--7--7--7--7--7--5--5--3--|

e|---------------------------------------------------------------------------|
B|---------------------------------------------------------------------------|
G|---------------------------------------------------------------------------|
D|---3--3--3--3--3--3--3--3--10--10--10--10--10--10--10--10------------------|
A|---3--3--3--3--3--3--3--3--10--10--10--10--10--10--10--10------------------|
E|---3--3--3--3--3--3--3--3--10--10--10--10--10--10--10--10------------------|

e|---------------------------------------------------------------------------|
B|---7b9--7--------7b9--7----------------------------------------------------|
G|---7b9--7--5-----7b9--7--5-------------------------------------------------|
D|--------------7-------------7----------------------------------------------|
A|---------------------------------------------------------------------------|
E|---------------------------------------------------------------------------|

e|---------------------------------------------------------------------------|
B|---------------------------------------------------------------------------|
G|---------------------------------------------------------------------------|
D|---10------10------10------10--12--12--7--7--7--7--7--7--5--5--3-----------|
A|---10------10------10------10--12--12--7--7--7--7--7--7--5--5--3-----------|
E|---10--10--10--10--10--10--10--12--12--7--7--7--7--7--7--5--5--3-----------|

e|---------------------------------------------------------------------------|
B|---------------------------------------------------------------------------|
G|---------------------------------------------------------------------------|
D|---3--3--3--3--3--3--3--3--10--10--10--10--10--10--10--10------------------|
A|---3--3--3--3--3--3--3--3--10--10--10--10--10--10--10--10------------------|
E|---3--3--3--3--3--3--3--3--10--10--10--10--10--10--10--10------------------|
  Im tired.......                                            Come 
e|---------------------------------------------------------------------------|
B|---------------------------------------------------------------------------|
G|---------------------------------------------------------------------------|
D|---10------10------10------10--12--12--7--7--7--7--7--7--5--5--3-----------|
A|---10------10------10------10--12--12--7--7--7--7--7--7--5--5--3-----------|
E|---10--10--10--10--10--10--10--12--12--7--7--7--7--7--7--5--5--3-----------|
    get me...                                           Im wired...
e|---------------------------------------------------------------------------|
B|---------------------------------------------------------------------------|
G|---------------------------------------------------------------------------|
D|---3--3--3--3--3--3--3--3--10--10--10--10--10--10--10--10------------------|
A|---3--3--3--3--3--3--3--3--10--10--10--10--10--10--10--10------------------|
E|---3--3--3--3--3--3--3--3--10--10--10--10--10--10--10--10------------------|
                                                    Come feed...
e|---------------------------------------------------------------------------|
B|---------------------------------------------------------------------------|
G|---------------------------------------------------------------------------|
D|---10--10--10--10--10--12--12--7--7--7--7--7--7--5--5--3-------------------|
A|---10--10--10--10--10--12--12--7--7--7--7--7--7--5--5--3-------------------|
E|---10--10--10--10--10--12--12--7--7--7--7--7--7--5--5--3-------------------|
 
e|---------------------------------------------------------------------------|
B|---------------------------------------------------------------------------|
G|---------------------------------------------------------------------------|
D|---3--3--3--3--3--3--3--3--10--10--10--10--3--3--3--3----------------------|
A|---3--3--3--3--3--3--3--3--10--10--10--10--3--3--3--3----------------------|
E|---3--3--3--3--3--3--3--3--10--10--10--10--3--3--3--3----------------------|

e|---------------------------------------------------------------------------|
B|---------------------------------------------------------------------------|
G|---------------------------------------------------------------------------|
D|---10--10--10--10--3--3--3--3--10--10--10--10--3--3--3--3------------------|
A|---10--10--10--10--3--3--3--3--10--10--10--10--3--3--3--3------------------|
E|---10--10--10--10--3--3--3--3--10--10--10--10--3--3--3--3------------------|

e|---------------------------------------------------------------------------|
B|---------------------------------------------------------------------------|
G|---------------------------------------------------------------------------|
D|---10--10--10--10--3--3--3--3--10------------------------------------------|
A|---10--10--10--10--3--3--3--3--10------------------------------------------|
E|---10--10--10--10--3--3--3--3--10------------------------------------------|




===============================================================================

View Just Lyrics...

I still don't know what I was waiting for
A big love to fall down from the sky
She took my hand and picked me up off the floor
She put an apple in my eye

[Chorus]
I said I'm tired
Come get me off the merry-go-round
I'm wired
Come feed me and then bring-a-me down

She come up to me
I can't remember what she said
'Cause I was in a trance and I forgot it all
Banging on about all that
Revolution in her head
She'd make a lover seem so magical

She said I'm tired
Come get me off the merry-go-round
I'm wired
Well heaven must have sent ya
To save me from the rapture

[Chorus]

View Albums that This Song Appears On...

  • Dig Out Your Soul

    Genre: Pop/Rock Label: Big Brother Song Duration on Album: 3:02 Album Duration: 45:47

    Release Date: October 6, 2008

    Moods: Bravado, Cynical/Sarcastic, Stately, Swaggering, Confident, Irreverent, Plaintive, Wry, Acerbic, Bittersweet, Boisterous, Brash, Brassy, Earnest, Lively, Poignant, Reckless, Rousing, Rowdy, Snide

    Styles: Alternative Pop/Rock, Alternative/Indie Rock, British Trad Rock, Britpop, Contemporary Pop/Rock, Hard Rock

    Themes: Drinking, Guys Night Out, Hanging Out, Partying

  • Box Set

    Label: Big Brother

    Styles: Alternative/Indie Rock, Britpop

Close panel

Help Rate This Tab by Voting Up or Down

Vote Up Vote Down
Rating: -0 +0

Other Songs Like This

x

Copyright © 2017