Song: Coming For You

Band: Offspring

Rating: -0 +0 Views: 81

-------------------------------------------------------------------------------
                             The Offspring - Coming For You
-------------------------------------------------------------------------------
Tabbed by: Onurhan Kocaman
E-mail: onurhankocaman@gmail.com
30/01/2015 -- 14:30
Tuning: Standard

e|------------------------------------------------------------------|
B|------------------------------------------------------------------|
G|-----9--9--9--9---7--7--7--7------------------9--------7---7-/-9--|
D|-----9--9--9--9---7--7--7--7------------------9--------5---5-/-9--|
A|-----7--7--7--7---5--5--5--5------------------7---X3---5---5-/-7--|
E|----------------------------------------0-0-----------------------|
                                        pm pm
e|--------------------------------------------------------------------------|
B|--------------------------------------------------------------------------|
G|-----9--9--9--9--7--7--7--7----------9---------9-----5--7-----------------|
D|-----9--9--9--9--7--7--7--7----------9---X2 ---9--9--5--7---  --> CHORUS--|
A|-----7--7--7--7--5--5--5--5----------7---------7--9--3--5-----------------|
E|--------------------------------0-0---------------7-----------------------|
                                 pm pm
e|-----------------------------------------------------------|
B|-----------------------------------------------------------|
G|----9-9---------12--12---------------------------7--7-/-9--|
D|----9-9--10-10--12--12--12--12-/-14-------9------7--7-/-9--|
A|----7-7--10-10--10--10--12--12-/-14--3X---9-7X---5--5-/-7--|
E|---------8--8-----------10--10-/-12-------7----------------|
                                                   coming for you
e|--------------------------------------------------------------------------------------|
B|--------------------------------------------------------------------------------------|
G|-----9--9--9-9--9-----------7--7--/--9------------------------------------------------|
D|-----9--9--9-9--9-----------7--7--/--9------------------------------------------------|
A|----------------------------5--5--/--7------------------------------------------------|
E|--------------------------------------------------------------------------------------|
     while bass playing



    

e|------------------------------------------------------------------|
B|------------------------------------------------------------------|
G|-----9--9--9--9---7--7--7--7------------------9--------7---7-/-9--|
D|-----9--9--9--9---7--7--7--7------------------9--------5---5-/-9--|
A|-----7--7--7--7---5--5--5--5------------------7---X3---5---5-/-7--|
E|----------------------------------------0-0-----------------------|

e|---------------------------------------|
B|---------------------------------------|
G|---9--9--9-9--9---------9-9--9--9-9-9--|
D|---9--9--9-9--9--after--9-9--9--9-9-9--|
A|------------------------7-7--7--7-7-7--|
E|---------------------------------------|
   while bass play        pushing shove

e|--------------------------------------------------------------------------|
B|--------------------------------------------------------------------------|
G|-----9--9--9--9--7--7--7--7----------9---------9-----5--7-----------------|
D|-----9--9--9--9--7--7--7--7----------9---X2 ---9--9--5--7---  --> CHORUS--|
A|-----7--7--7--7--5--5--5--5----------7---------7--9--3--5-----------------|
E|--------------------------------0-0---------------7-----------------------|



    

e|------------------------------------------------------------------------|
B|------------------------------------------------------------------------|
G|----9-9---------12--12-----------------------------------------9--------|
D|----9-9--10-10--12--12--12--12-/-14-------9-----10----12-------9--STOP--|
A|----7-7--10-10--10--10--12--12-/-14--X3---9-7X--10-X4-12-X4----7--------|
E|---------8--8-----------10--10-/-12-------7-----8-----10----------------|


e|---------------------------------------------------------------------------------------|
B|---------------------------------------------------------------------------------------|
G|----7-/-9--9-9-7----------7------------------------------------------------------------|
D|----7-/-9--9-9-7---8--8-8-7--------4x--------------------------------------------------|
A|----5-/-7--7-7-5---8--8-8-5------------------------------------------------------------|
E|-------------------6--6-6--------------------------------------------------------------|

Solo is not full

e|------------------------------------------------------------------------------------|
B|------------------------------------------------------------------------------------|
G|---11b-10-11b-10--11/14--10---11b-10 11b-10--11/14--10--11b-10--11b-10---11/14--10--|
D|------------------------------------------------------------------------------------|
A|------------------------------------------------------------------------------------|
E|------------------------------------------------------------------------------------|
    my guitar is broke im not sure full bend or half bend
e|------------------------------------------------------------------------------------------------------|
B|-------------------------------16b-16b-16b-16-14--19-19b-199b-19b-19-17----something like that sorry--|
G|-im not sure this part------------------------------------------------------I'll add when i finish----|
D|------------------------------------------------------------------------------------------------------|
A|------------------------------------------------------------------------------------------------------|
E|------------------------------------------------------------------------------------------------------|
                               2:21 this is full bend


e|------------------------------------|
B|------------------------------------|
G|---9--9--9-9--9---------------------|
D|---9--9--9-9--9--after------9-------|
A|----------------------------9--13X--|
E|----------------------------7-------|
                              when dexter said ''fucked up'' stop and hold B chord

chorus part is the same as upside

OUTRO

e|---------------------------------------------------|
B|---------------------------------------------------|
G|----7-/-9--9-9-7----------7--------------9-9--7-9--|
D|----7-/-9--9-9-7---8--8-8-7--------5x----9-9--7-9--|
A|----5-/-7--7-7-5---8--8-8-5--------------7-7--5-7--|
E|-------------------6--6-6--------------------------|

| /   slide up
| \   slide down
| h   hammer-on
| p   pull-off
| ~   vibrato
| +   harmonic
| x   Mute note
| b   Bend
| pb  Pre-bend
| br  Bend release
| pbr Pre-bend release
| brb Bend release bend

************************************

Close panel

Help Rate This Tab by Voting Up or Down

Vote Up Vote Down
Rating: -0 +0

Other Songs Like This

x

Copyright © 2017