Song: I Dont Wanna Know

Band: P Diddy

Rating: -0 +0 Views: 107



    

																				I tabbed this myself and it sounds close to the original song.

Live performance: http://www.youtube.com/watch?v=KMzZtHncY9U

If there are any enquires, please do email me at petlover0212@hotmail.com



    


I Don't Wanna Know - Mario Winans Ft. Diddy

Capo on the 3rd
Standard Tuning


Intro:
         
e:------------------------|  |-------------------------------|
B:------------------------|  |-------------------------------|
G:----2---4---5---2---4---|  |---2---4---5---7---5---2---4---|
D:------------------------|  |-------------------------------|
A:------------------------|  |-------------------------------|
E:------------------------|  |-------------------------------|


Am                 Em
Somebody said they saw you
Am                  Em       F

The person you were kissing wasn't me
Am                Em
And I would never ask you
Am               Em    
I just kept it to myself

              Am
I don't wanna know
        Em                        F

If your playin me, keep it on the low
         C           Em         Am
Cause my heart can't take it anymore
            Em                           F

And if your creepin, please don't let it show
   C     Em            Am
Oh baby, I don't wanna know


   Am                  Em              
e:--0---------0----------0-----------------|
B:-----1---------------------0-----0-------|
G:-------2---------------------0-----------|
D:---2-----2---------------2-----2---------|
A:-----------------------------------------|
E:-----------------------------------------|

I think about it when I hold you
Am                  Em      F  (strum the Em & F)
When lookin in your eyes, I can't believe
I don't need to know the truth
Baby keep it to yourself

              Am
I don't wanna know
        Em                        F

If your playin me, keep it on the low
         C           Em         Am
Cause my heart can't take it anymore
            Em                           F

And if your creepin, please don't let it show
   C     Em             Am
Oh baby, I don't wanna know

F                              G  
Did she touch you better then me (touch you better then me)
                          Am
Did she watch you fall asleep (watch you fall asleep)
                           C               Em
Did you show her all those things that you used to do to me (do to me baby)
F                          G  
If you

Close panel

Help Rate This Tab by Voting Up or Down

Vote Up Vote Down
Rating: -0 +0

Other Songs Like This

x

Copyright © 2019