Song: Jenny Dont Be Hasty

Band: Paolo Nutini
Composed By: Scott Storch, Tariq Trotter

Rating: -1 +1 Views: 101



    

																				-----------------------------------------------------------------------------
	                 JENNY DON'T BE HASTY - Paolo Nutini
-----------------------------------------------------------------------------

Tabbed by: Josh Spivey
Email: jspivey@live.co.uk

Tuning: Standard



    

Beware! All chords except the A are barred so don't try to play the open versions!

Intro:
F#m Strum top string repeatedly, building volume.

F#m  C#  D  C#  B.... B  C#  B  A  F#m  x2


Verse:
F#m      C#    D     C#m    B   
You said you'd marry me      if I was 23 
B           D    B         A     F#m
but I'm one that you can't see    if I'm only 18 
F#m     C#  D            C#      B 
Tell me who makes these rules     obviously not you 
B       D   B    A     F#m
Who are you answering to? 


Chorus:
F#m                  A             
Oh, Jenny don't be hasty 
A                   C*    F#m
No, don't treat me like a baby 
D                         A

Let me take you where you let me 
           C*        F#m        D  A

because leaving just upsets me

Same as that for the rest of it.

Chords:

    F#m   C#     D     B     A     C* 

e||--2--|--4--|--5--|--2--|--0--|--2--|
A||--2--|--6--|--7--|--3--|--2--|--4--|
D||--2--|--6--|--7--|--4--|--2--|--4--|
G||--4--|--6--|--7--|--4--|--2--|--4--|
B||--4--|--4--|--5--|--2--|--0--|--2--|
E||--2--|--4--|--5--|--2--|--0--|--2--|

View Albums that This Song Appears On...

  • Jenny Don't Be Hasty, Pt. 2

    Label: Atlantic

    Release Date: September 25, 2006

Close panel

Help Rate This Tab by Voting Up or Down

Vote Up Vote Down
Rating: -1 +1

Other Songs Like This

x

Copyright © 2019