Song: Misery Business

Band: Paramore

Rating: -1 +1 Views: 114

Intro
e|-------------------------------------------------------------------------|
b|-------------------------------------------------------------------------|
g|-------------------------------------------------------------------------|
d|---------8-10-8-10-----------------------------8-10-8-10-----------------|
a|11-11--11---------10-10--10-10-10--10-11-11--11---------8-8--8-8-8-------|
E|-------------------------------------------------------------------------|
  
e|-------------------------------------------------------------------------|
b|-------------------------------------------------------------------------|
g|--------------------------------------------------------------5h8-8------|
d|---------8-10-8-10-----------------------------8-10-8-10---6h8-----------|
a|11-11--11---------10-10--10-10-10--10-11-11--11---------6h8--------------|
E|-------------------------------------------------------------------------|



    

Verse-Palm Muted
e|------------------------------------------------------|
b|------------------------------------------------------|
g|------------------------------------------------------|
d|4-4--4---------2-2--2-2-2--2-4-4--4---------0-0--0-0-0|
a|4-4--4-2-4-2-4-2-2--2-2-2--2-4-4--4-2-4-2-4-0-0--0-0-0|
E|4-4--4---------2-2--2-2-2--2-4-4--4---------0-0--0-0-0|

e|------------------------------------------------------|
b|------------------------------------------------------|
g|------------------------------------------------------|
d|4-4--4---------2-2--2-2-2--2-4-4--4---------0-0--0-0-0|
a|4-4--4-2-4-2-4-2-2--2-2-2--2-4-4--4-2-4-2-4-0-0--0-0-0|
E|4-4--4---------2-2--2-2-2--2-4-4--4---------0-0--0-0-0|

                                                 First Time
e|--------------------------------------------|----------------|
b|6-6--6-6-6-7-7-6-6--6-6-6-7-7-6-6--6-6-6-7-7|-6-6-6-6-4-4-4-4|
g|--------------------------------------------|----------------|
d|--------------------------------------------|----------------|
a|--------------------------------------------|----------------|
E|--------------------------------------------|----------------|
  Repeat(x2)
                                                 Second Time
                                             e|-----------------------|
                                             b|11-11-11-11-13-13-13-13|
                                             g|-----------------------|
                                             d|-----------------------|
                                             a|-----------------------|
                                             E|-----------------------| PreChorus-Palm Muted
e|--------------------------|
b|--------------------------|
g|--------------------------|
d|3-3-3-3-3-3-3-3--1-1-1-1-1|
a|3-3-3-3-3-3-3-3--1-1-1-1-1|
E|3-3-3-3-3-3-3-3--1-1-1-1-1|



    

Chorus
e|--------------------------------------------------------------|
b|--------------------------------------------------------------|
g|10-1010101010--13-131313131313--12121212121212--131313--121212|
d|x--x-x-x-x-x---x--x-x-x-x-x-x---x-x-x-x-x-x-x---x-x-x---x-x-x-|
a|8--8-8-8-8-8---11-111111111111--10101010101010--111111--101010|
E|x--x-x-x-x-x---x--x-x-x-x-x-x---x-x-x-x-x-x-x---x-x-x---x-x-x-|
  Repeat(x2)
                                                       First Time
e|----------------------------------------------------|------|
b|----------------------------------------------------|------|
g|10-10-10-10-10-10-10--131313--12-12-12-12-12-12-12--|131313|
d|x--x--x--x--x--x--x---x-x-x---x--x--x--x--x--x--x---|x-x-x-|
a|8--8--8--8--8--8--8---111111--10-10-10-10-10-10-10--|111111|
E|x--x--x--x--x--x--x---x-x-x---x--x--x--x--x--x--x---|x-x-x-|
  Repeat(x2) 
                                                      Second Time   
                                                     e|------------|
                                                     b|------------|
                                                     g|17171717--15|
                                                     d|x-x-x-x---x-|
                                                     a|15151515--13|
                                                     E|x-x-x-x---x-|     Back To Intro
             End With-e|----------------------------|
                      b|----------------------------|
                      g|----------------------------|
                      d|---------8-10-8-10----------|
                      a|11-11--11---------8--8--8--8|
                      E|----------------------------|

Solo                         
e|----------------------|>>   e|9-9-9-9-8-8-8-8|
b|----------------------|>>   b|---------------|
g|8h10-10-10-10-10-10-10|>>   g|---------------|
d|----------------------|>>   d|---------------|
a|----------------------|>>   a|---------------|
E|----------------------|>>   E|---------------| Back To Beginning
   Repeat(x3)  <<<<<<<<<<<<<<<<<<<<<<<<<<<<<<<<<<<<<<<<<<<<<<<<<<<<
   After 2 Times, Go To Bottom Part

e|11-11-11-11-11-11-11-11-9-9-9-9-9-9-9-9-8-8-8-8-8-8-8-8-6-6-6-6-6-6-6-6|
b|-----------------------------------------------------------------------|
g|-----------------------------------------------------------------------|
d|-----------------------------------------------------------------------|
a|-----------------------------------------------------------------------|
E|-----------------------------------------------------------------------|
                                                                          
e|11-11-11-11-11-11-11-11-13-13-13-13-13-13-13-13-16-16-16-16-18-18-20-20-15
b|-------------------------------------------------------------------------|
g|-------------------------------------------------------------------------|
d|-------------------------------------------------------------------------|
a|-------------------------------------------------------------------------|
E|-------------------------------------------------------------------------|
  Hit The Last 15 5 times then slide down the neck, and wait for the chorus.

  Attn.-Before the last chorus Hayley says,"Whoa I never meant to brag, but I got 
him where I want him now", and then starts over, and thatz when the guitar part starts.

  After last chorus go back to intro and end with the one above the solo to end song.^^^^^^^^^^^^^

  Order
  -----
  Intro
  Verse
  PreChorus
  Chorus
  Intro(with 2nd ending)
  Verse
  PreChorus
  Chorus
  Solo
  Chorus
  Intro(with 2nd ending)

Close panel

Help Rate This Tab by Voting Up or Down

Vote Up Vote Down
Rating: -1 +1

Other Songs Like This

x

Copyright © 2019