Song: Hit Me With Your Best Shot

Band: Pat Benatar

Rating: -1 +1 Views: 153

pm= palm mute
well here  is the first min and 15 sec, i hope u like it

                                                       http://www.benatar.com/



    

E-------------------------------------------------------------|
B-------------------------------------------------------------|
G-9-------6-6--4-4--9-------6-6--4-4--------------------------|
D-9--7-7--6-6--4-4--9--7-7--6-6--4-4--7-7--9-9----------------|
A-7--7-7--4-4--2-2--7--7-7--4-4--2-2--7-7--9-9----------------|
E----5-5---------------5-5------------5-5--7-7----------------|

E---------------------------------------------------------------|
B---------------------------------------------------------------|
G-9-------6-6--4-4----9-------6-6--4-4--------------------------|
D-9--7-7--6-6--4-4--9-9--7-7--6-6--4-4--7-7--9-9----------------|
A-7--7-7--4-4--2-2--9-7--7-7--4-4--2-2--7-7--9-9----------------|
E----5-5------------7----5-5------------5-5--7-7----------------|

E------------------------------------------------------------|
B------------------------------------------------------------|
G-9--8--6--------(----pm---)---------------------------------|
D-9--8--6--7--9--9-9-9-9-9-9-9-9-9-9-9-----------------------|
A-7--6--4--7--9--9-9-9-9-9-9-9-9-9-9-9-----------------------|
E----------5--7--7-7-7-7-7-7-7-7-7-7-7-----------------------|



    

E------------------------------------------------------------|
B------------------------------------------------------------|
G-9--8--6--------(----pm---)---------------------------------|
D-9--8--6--7--9--9-9-9-9-9-9-9-9-9-9-9-----------------------|
A-7--6--4--7--9--9-9-9-9-9-9-9-9-9-9-9-----------------------|
E----------5--7--7-7-7-7-7-7-7-7-7-7-7-----------------------|

E---------------------------------------------------------------|
B---------------------------------------------------------------|
G-9-------6-6--4-4----9-------6-6--4-4--------------------------|
D-9--7-7--6-6--4-4--9-9--7-7--6-6--4-4--7-7--9-9----------------|
A-7--7-7--4-4--2-2--9-7--7-7--4-4--2-2--7-7--9-9----------------|
E----5-5------------7----5-5------------5-5--7-7----------------|

E---------------------------------------------------------------|
B---------------------------------------------------------------|
G-9-------6-6--4-4----9-------6-6--4-4--------------------------|
D-9--7-7--6-6--4-4--9-9--7-7--6-6--4-4--7-7--9-9----------------|
A-7--7-7--4-4--2-2--9-7--7-7--4-4--2-2--7-7--9-9----------------|
E----5-5------------7----5-5------------5-5--7-7----------------|

E------------------------------------------------------------|
B------------------------------------------------------------|
G-9--8--6--------(----pm---)---------------------------------|
D-9--8--6--7--9--9-9-9-9-9-9-9-9-9-9-9-----------------------|
A-7--6--4--7--9--9-9-9-9-9-9-9-9-9-9-9-----------------------|
E----------5--7--7-7-7-7-7-7-7-7-7-7-7-----------------------|

E------------------------------------------------------------|
B------------------------------------------------------------|
G-9--8--6--------(----pm---)---------------------------------|
D-9--8--6--7--9--9-9-9-9-9-9-9-9-9-9-9-----------------------|
A-7--6--4--7--9--9-9-9-9-9-9-9-9-9-9-9-----------------------|
E----------5--7--7-7-7-7-7-7-7-7-7-7-7-----------------------|

E---------------------------------------------------------------|
B---------------------------------------------------------------|
G-9-------6-6--4-4----9-------6-6--4-4--------------------------|
D-9--7-7--6-6--4-4--9-9--7-7--6-6--4-4--7-7--9-9----------------|
A-7--7-7--4-4--2-2--9-7--7-7--4-4--2-2--7-7--9-9----------------|
E----5-5------------7----5-5------------5-5--7-7----------------|

E---------------------------------------------------------------|
B---------------------------------------------------------------|
G-9-------6-6--4-4----9-------6-6--4-4--------------------------|
D-9--7-7--6-6--4-4--9-9--7-7--6-6--4-4--7-7--9-9----------------|
A-7--7-7--4-4--2-2--9-7--7-7--4-4--2-2--7-7--9-9----------------|
E----5-5------------7----5-5------------5-5--7-7----------------|

Close panel

Help Rate This Tab by Voting Up or Down

Vote Up Vote Down
Rating: -1 +1

Other Songs Like This

x

Copyright © 2018