Song: English Tea Bass

Band: Paul Mccartney
Composed By: Paul McCartney

Rating: -0 +0 Views: 182



    

																				Paul McCartney
English Tea
Standard Tuning
Tabed by Alex Fragd

01:09
G-------------------------------|
D-------------------------------|
A---10--9--8--7--6--5--4--5-5---|
E-------------------------------|

G-------------------------------|
D-------------------------------|
A---10--9--8--7--6--5--4--5-5---|
E-------------------------------|



    

G-----------------------------------------------------|
D-----------------------------------------------------|
A---3-----5-----3-2-0--5-----3-2-0--5-----3-----5-5---|
E------5-----3------------3------------3-----5--------|

G------------------------------|
D------------------------------|
A---------------6--5--4--5-5---|
E---3--2--1--0-----------------|

G------------------------|
D------------------------|
A---10-9-8-7-6-5-4-5-----|
E--------------------3---|

View Albums that This Song Appears On...

  • Chaos and Creation in the Backyard

    Genre: Pop/Rock Label: Hear Music Song Duration on Album: 2:11 Album Duration: 46:47

    Release Date: September 13, 2005

    Moods: Intimate, Laid-Back/Mellow, Poignant, Reflective, Autumnal, Relaxed, Searching, Bittersweet, Gentle

    Styles: Contemporary Pop/Rock, Soft Rock

    Themes: Introspection, Rainy Day, Reflection, Comfort, Stay in Bed

Close panel

Help Rate This Tab by Voting Up or Down

Vote Up Vote Down
Rating: -0 +0

Other Songs Like This

x

Copyright © 2019