Song: Perfect Skin

Band: Peace
Composed By: AndraƩ Crouch

Rating: -0 +0 Views: 56

Peace - Perfect Skin
Tabbed by David Glass (<--Lad)




    

I've listen to this 3-4 times so allow the hate Im just ill off school and passing time. 
Gr8 song thou.
Strum however you damn well please.

I do bare bar chords but you can yolo to whatever you feel comfortable with. Pussies.

eNjoY Email complaints to www.IdontGiveADam.co.org



    


Intro/Verse:                    (You can play the F where ever I just put it high for bants)

   F     A      A#
|--13-----5------6----|
|--13-----5------6----|
|--14-----6------7----|
|--15-----7------8----|
|--15-----7------8----|
|--13-----5------6----|

Pre Chorus:

"So gimmie gimmie..."

   Dm     C      A#     F      A
|--5-----3------6------1------5-------|
|--6-----5------6------1------5-------|
|--7-----5------7------2------6-------|
|--7-----5------8------3------7-------|
|--5-----3------8------3------7-------|
|--x-----x------6------1------5-------|

Chorus:

"I wish i had piff skin..."

   A#     F     A      Dm     C
|--6-----1------5------5------3-------|
|--6-----1------5------6------5-------|
|--7-----2------6------7------5-------|
|--8-----3------7------7------5-------|  x2
|--8-----3------7------5------3-------|
|--6-----1------5------x------X-------|

   A#    C
|--6-----8-----|
|--6-----8-----|
|--7-----9-----|
|--8-----10----|
|--8-----10----|
|--6-----8-----|


Verse 2 (Same as V1)

Chorus 2 (Same as C1)


BREAKDOWN (Solo)


Chorus 3 (Different but close)

   A#     F     A      Dm     C
|--6-----1------5------5------3-------|
|--6-----1------5------6------5-------|
|--7-----2------6------7------5-------|
|--8-----3------7------7------5-------|  x2
|--8-----3------7------5------3-------|
|--6-----1------5------x------X-------|

   A#    C     F       Dm     C
|--6-----8-----1-------5------3--|
|--6-----8-----1-------6------5--|
|--7-----9-----2-------7------5--|
|--8-----10----3-------7------5--|
|--8-----10----3-------5------3--|
|--6-----8-----1-------x------x--|

   A#    C
|--6-----8-----|
|--6-----8-----|
|--7-----9-----|
|--8-----10----|
|--8-----10----|
|--6-----8-----|

Outro (Verse Chords)

   F     A      A#
|--13-----5------6----|
|--13-----5------6----|
|--14-----6------7----|
|--15-----7------8----|
|--15-----7------8----|
|--13-----5------6----|

View Albums that This Song Appears On...

  • Happy People

    Genre: Pop/Rock Label: COLUMBIA Album Duration: 37:06

    Release Date: February 9, 2015

    Moods: Airy, Atmospheric, Carefree, Dreamy, Lively, Melancholy, Searching, Summery, Wistful

    Styles: Indie Rock, Alternative/Indie Rock

    Themes: Hanging Out, Late Night

Close panel

Help Rate This Tab by Voting Up or Down

Vote Up Vote Down
Rating: -0 +0

Other Songs Like This

x

Copyright © 2017