Song: Think Of Me

Band: Pine Street Worship

Rating: -1 +1 Views: 82

title= Think of me
a great christian band                               repeat in this order
standard tuneing(acoustic)

e---------------------3--------3------0h2---|   #1
b-----------------------3-------3----3---3--|
g-------------------0----0---0---0--2-----2-|
d-----2------0----0---------2------0--------|
a----2-----0---------------3----------------|
E--0-----2-----3----------------------------|



    

e---------------3-------3---------3-----|      #2
b----------------3-------3----------3---|
g-------------0---0---0---0-----0-----0-|
d---2----0---0-------2--------0---------|
a--2----0-----------3-------2-----------|
E-0----2----3---------------------------|

Close panel

Help Rate This Tab by Voting Up or Down

Vote Up Vote Down
Rating: -1 +1

Other Songs Like This

x

Copyright © 2019