Song: Waiting For The Sun

Band: Powderfinger

Rating: -1 +1 Views: 107

-------------------------------------------------------------------------------
			     WAITING FOR THE SUN - Powderfinger
-------------------------------------------------------------------------------

Tabbed by:Anthony Chmiel (rhcp_guitarist on UG)
Email: pantallicametal666@hotmail.com



    

Tuning: Standard (low to high - eadgbe)
Key: h = hammer on   p = pull off   / = slide
Intro/Verse 1: (slight overdrive)
     E     G     D     A       E

e|---0-----3-----2-----0-------0000000000000000-----|
B|---0-----3-----3-----2-------0000000000000000-----|
G|---1-----0-----2-----2---x3--1111111111111111-----|  
D|---2-----0-----0-----2-------2222222222222222-----|
A|---2-----2-----------0-------2222222222222222-----|
E|---0-----3-------------------0000000000000000-----|

     E     G     D     A  
e|---0-----3-----2-----0-------0000000000000000-----|
B|---0-----3-----3-----2-------0000000000000000-----|
G|---1-----0-----2-----2---x3--1111111111111111-----|  
D|---2-----0-----0-----2-------2222222222222222-----|
A|---2-----2-----------0-------2222222222222222-----|
E|---0-----3-------------------0000000000000000-----|

Chorus: (chords)
E G D A x2 AAAAAAAA



    

Verse 2: (Same as first verse, only the guitar 
may have a very slight auto-wah effect)

Chorus

Interlude:
Four chords E G D A x4, on second time secong guitar comes in doing:
e|-------------------------------------|
B|--7-5-7--7-5-7-----7-5-7-7/8-7-5-----|
G|---------------7-6---------------6-5-|
D|-------------------------------------|
A|-------------------------------------|
E|-------------------------------------|
then this solo, with the same chords played behind it
e|----------------------------------------|
B|------10-12------10-10-----(7h8p7)------|
G|-9-12-------9-12------------------------|
D|----------------------------------(9)---|
A|----------------------------------------|      
E|----------------------------------------|      
Do this four times, but on the last two times dont play the part in brackets

Now play the chorus with the solo thing over the top (but without the part in brackets)
THATS IT! have fun with it:D.

Close panel

Help Rate This Tab by Voting Up or Down

Vote Up Vote Down
Rating: -1 +1

Other Songs Like This

x

Copyright © 2018