Song: Namaste

Band: Powderfinger
Composed By: Powderfinger

Rating: -0 +0 Views: 127



    

																				 
Powderfinger - Namaste
Album - Parables for Wooden Ears

 Drop D tuning: 
E-|------------------------|- 
B-|------------------------|- 
G-|------5------------7----|- 
D-|---7-----7------5-----5-|-(x 8) 
A-|-0-----------0----------|- 
D-|------------------------|- 



    
 
E-|-------------------|-      -|------------------|- 
B-|-------------------|-      -|------------------|- 
G-|---------------5-7-|-      -|-----5-7------7/9-|-- 
D-|-----5-7-----------|-(x 3) -|------------------|- 
A-|---5---------5-----|-      -|---5--------5-----|- 
D-|-5---------5-------|-      -|-5--------5-------|- 
 
E-|------------------------|- 
B-|------------------------|- 
G-|------5------------7----|- 
D-|---7-----7------5-----5-|-(x 2) 
A-|-0-----------0----------|- 
D-|------------------------|- 
 
E-|-------------------|- 
B-|--------0----------|- 
G-|------5------------|- 
D-|---7-------7-5-5-7-|-(x 4) 
A-|-0-----------------|- 
D-|-------------------|- 
 
 
E-|-------------------|-      -|------------------|- 
B-|-------------------|-      -|------------------|- 
G-|---------------5-7-|-      -|-----5-7------7/9-|-- 
D-|-----5-7-----------|-(x 3) -|------------------|- 
A-|---5---------5-----|-      -|---5--------5-----|- 
D-|-5---------5-------|-      -|-5--------5-------|- 
 
E-|------------------------|- 
B-|------------------------|- 
G-|------5------------7----|- 
D-|---7-----7------5-----5-|-(x 2) 
A-|-0-----------0----------|- 
D-|------------------------|- 
 
E-|-------------------------|- 
B-|--------------3----------|- 
G-|-----2p0------0--------6-|- 
D-|---0--------0--------4-4-|-(x 4) 
A-|-0--------2--------4---4-|- 
D-|-----------------4-----4-|- 
 
E-|----------------------------------------------------|-----|- 
B-|---2---3---------0--------0-------------------0-----|--5--|- 
G-|-------------2-----2----------------0----0h2--2-----|--4--|- 
D-|------------------------------------------------(x4)|--2--|- 
A-|-2---2-----2----2------2h3---3----------------------|--2--|- 
D-|-------------------------------2/3----3-------------|--2--|- 
 
LEAD RIFF UNDER LAST PART 
E-|-10\9--9\7--7\5-------5--7-7---5----|- 
B-|------------------7---------------7-|- 
G-|------------------------------------|- 
D-|------------------------------------|-(x 3) 
A-|------------------------------------|- 
D-|------------------------------------|-

View Albums that This Song Appears On...

  • Parables for Wooden Ears

    Genre: Pop/Rock Label: Polydor Song Duration on Album: 2:21 Album Duration: 49:58

    Release Date: December 2, 2003

    Styles: Alternative Pop/Rock, Alternative/Indie Rock, Aussie Rock

Close panel

Help Rate This Tab by Voting Up or Down

Vote Up Vote Down
Rating: -0 +0

Other Songs Like This

x

Copyright © 2018