Song: Master Of Puppets Bass

Band: Primus

Rating: -1 +1 Views: 94



    

																				The tabs on this site are correct, 
but i wanted to post my own version that sounds pretty cool. 
Its a bit more difficult, but give it a shot. 
THIS IS BASED ON A LIVE VERSION! but i have tweaked it. 

\ over the tab means whammy bar dive.

            tap with fingers
|--------------------------------------------------------------------|
|--------------------------------------------------------------------|
|-----------|triplet|triplet-----------------------------------------|
|0/12~~~~~~~10-10-10-10-10-10----------------------------------------|



    

 s s p  s s p  V    V   V   s s p s s p s s p s p s p   s     
|--------------------------------------------------------------------|
|--------------12--11--10--------------------------------------------|
|--------------12--11--10--------------------------------------------|
|0-0-12-0-0-11-10---9---8---0-0-7-0-0-6-0-0-5-0-4-0-5h7-3p2p0--------| x4

 s s p s s p s s p s s p s s p s s p s s p s s s     s     s
|--------------------------------------------------------------------|
|--------------------------------------------------------------------|
|----2-----3-----4-----3----2------2-----3---------------------------|
|0-1---0-1---0-1---0-1---0-1---0-1---0-1---0-1-3p2p0-3p2p0-3p2-------| x2

 s s p s s p s s p s s p s s p s s p s s p s s p s s p s s p
|--------------------------------------------------------------------|
|--------------------------------------------------------------------|
|----2-----3-----4-----3----2------2-----3-----4-----3-----2h3-------|
|0-1---0-1---0-1---0-1---0-1---0-1---0-1---0-1---0-1---0-1-----------| 
                                                                   
 s s p s s p s s p s s p s s p s s p s s p s s s     s     s          
|--------------------------------------------------------------------|  
|--------------------------------------------------------------------|  
|----2-----3-----4-----3----2------2-----3---------------------------|
|0-1---0-1---0-1---0-1---0-1---0-1---0-1---0-1-3p2p0-3p2p0-3p2-------|


 s s p s s p s s p s s p s s p s s p s s p s s p s s p s s p
|--------------------------------------------------------------------|
|--------------------------------------------------------------------|
|----2-----3-----4-----3----2------2-----3-----4-----3-----2h3-------|
|0-1---0-1---0-1---0-1---0-1---0-1---0-1---0-1---0-1---0-1-----------| 

 s s p s s p s s p s s p s s p s s p s s p s s s     s     s          
|--------------------------------------------------------------------|  
|--------------------------------------------------------------------|  
|----2-----3-----4-----3----2------2-----3---------------------------|
|0-1---0-1---0-1---0-1---0-1---0-1---0-1---0-1-3p2p0-3p2p0-3p2-------|

  s     s    s   s     s     s  s  s p s  s p s  s p s  s p s  s p \
|------------------------------------15-----15-----15-----15-----15----| 
|-------------------------------14-14--14-14--14-14--14-14--14-14--14--| 
|------------------------------------------------------------------14--|
|3p2p0-3p2p0-3p2-3p2p0-3p2p0-3p2-----------------------------------12--|

Close panel

Help Rate This Tab by Voting Up or Down

Vote Up Vote Down
Rating: -1 +1

Other Songs Like This

x

Copyright © 2019