Song: Killer Queen

Band: Queen

Rating: -1 +1 Views: 174

Key:

b  = bend
pb = prebend
r  = release
h  = hammer on
p  = pull off
/  = slide up(high)
\  = slide down(low)



    


Swing Eighths

e|----------------------------------------------------------------------------|
B|--------10-10~--------------10-11----10-------------------------------------|
G|--12b13--------12-10p9------------12----10p9------12pb10-10-12--------------|
D|-----------------------12~-------------------12~---------------13p12-10~----|
A|----------------------------------------------------------------------------|
E|----------------------------------------------------------------------------|



    



e|----------------------------------------------------------------------------|
B|----------------------------------------------------------------------------|
G|--12----10-------------------------------------15b17-15b17-15-17pb15--------|
D|-----13----12h13p12-10\--3-3~---3-3~---3-3~--------------------------17~----|
A|----------------------------------------------------------------------------|
E|----------------------------------------------------------------------------|



e|----------------------------------------------------------------------------|
B|--18-18-15h16p15--------------------------------19-19-16h17p16-19p17-20p19--|
G|-----------------17~--15b17-15b17-15-17pb15---------------------------------|
D|--------------------------------------------17~-----------------------------|
A|----------------------------------------------------------------------------|
E|----------------------------------------------------------------------------|



e|----------------------------------------------------------------------------|
B|-----18-20~--18~--16-18-20h21-20-18pb16----16-------------18b20-18b20r18----|
G|--20------------------------------------16----16-15-17-15-------------------|
D|----------------------------------------------------------------------------|
A|----------------------------------------------------------------------------|
E|----------------------------------------------------------------------------|



e|--------18------------------------------------------------------------------|
B|--18b20----18b20-18b20-18b20b21---------------------------------------------|
G|----------------------------------------------------------------------------|
D|----------------------------------------------------------------------------|
A|----------------------------------------------------------------------------|
E|----------------------------------------------------------------------------|

Close panel

Help Rate This Tab by Voting Up or Down

Vote Up Vote Down
Rating: -1 +1

Other Songs Like This

x

Copyright © 2019