Song: Awit Ng Kabataan

Band: Rivermaya

Rating: -1 +2 Views: 189

Song Title    : Awit ng Kabataan
Artist        : Rivermaya
Album         : Rivermaya
Transcribed by: geoffrey b. oblimar

Here's a tab for this brilliant song for the ages.
Hope you enjoy it!



    


Tuning: E-A-D-G-B-e




    

Intro: C-D-G (7x)
       C-D pause

verse 1:
    C       D       G

Natatawa sa atin kaibigan
          C          D    G

At nangangaral ang buong mundo
  C          D           G

Wala na raw tayong mga kabataan
     C         D-G
Sa ating mga ulo


verse 2:
        C           D   Em-D

Kung gusto niyo kaming sigawan
  C        D         G

Bakit hindi niyo subukan?
C           D

Lalo lang kayong
           G        C-D-G
Hindi maiintindihan


Chorus:
              C-D-G
Ang awit ng kabataan
              C-D-G
Ang awit ng panahon
              C   D G

Hanggang sa kinabukasan
         C    D     G

Awitin natin ngayon

      C      D        G

Hindi niyo kami mabibilang
      C           D      G

At hindi rin maikukulong
C                         G

Marami kami ngunit iisa lamang
     C       G

Ang aming pasyon


(Repeat Chorus)


verse 3:
                C

At sa pag-tulog sa gabi
      G     G   G pause
Maririnig ang dasal
       C

Ng kabataang uhaw
         G

Sa tunay na pagmamahal


solo: (do chords of chorus)

(w/ distortion & a touch of reverb, I just love Perf's tone)

 (neck pick up)
                  hold                        PM  PM
e|--------------------------------------------------------7---8/10-10~~-|
B|--12-13-15/(18)b20---p15~--13-12-13--15-p8~----8---10-----------------|
G|---------------------------------------------9---9----9---9-----------|
D|----------------------------------------------------------------------|
A|----------------------------------------------------------------------|
E|----------------------------------------------------------------------|


  --------------------------------------------------sl/15~-|
  -12-13-15/(18)b20--(15)b17--15-13-12-13--12h13-p12-------|
  ---------------------------------------------------------|
  ---------------------------------------------------------|
  ---------------------------------------------------------|
  ---------------------------------------------------------|

   8a- - - - - - - - - - - - - - - - - - - - - - - - - - - - - - - - -
  ---------------------------------------------------------------------|
  -h15-h17-t20--h15-h17-t20--h15-h17-t20-p15-t20--h15-h17-t20-p15-t20--|
  ---------------------------------------------------------------------|
  ---------------------------------------------------------------------|
  ---------------------------------------------------------------------|
  ---------------------------------------------------------------------|

  - - - - - - - - - - - - - - - - - - - - - - - |      hold    hold
  ------------------------------t24~--24p22-24p22-|--------------------|
  -h15-h17-t20-p15-t20--h15-h17-------------------|-22b24---22b24---22-|
  ------------------------------------------------|--------------------|
  ------------------------------------------------|--------------------|
  ------------------------------------------------|--------------------|
  ------------------------------------------------|--------------------|

  ----------20-19-19\17-15----15-15----15-15\--------------------------|
  -20-22b24----------------17-------17--------12p10--------------------|
  --------------------------------------------------12----12--------12-|
  -----------------------------------------------------12-----10/12----|
  ---------------------------------------------------------------------|
  ---------------------------------------------------------------------|

                     8a- - - - - - - - - - - - - - - - - - - - - - - -
  ------------17-15--19-p15-p12-15-19-p12--12h15p12--------------------|
  ---------15----------------------------------------8-10-8h10h12p10p8-|
  -(12)/14-------------------------------------------------------------|
  ---------------------------------------------------------------------|
  ---------------------------------------------------------------------|
  ---------------------------------------------------------------------|

  - - - - - - - - - - - - - - - - - - - - - - - - - - - - - - - - - - -
  -19-19p17-p15-p12-h15-h17-h19--19-19p17-p15--17-17p15-p12--12-h14-h15-|
  ----------------------------------------------------------------------|
  ----------------------------------------------------------------------|
  ----------------------------------------------------------------------|
  ----------------------------------------------------------------------|
  ----------------------------------------------------------------------|

                                              w/ light feedback(G pitch)
  - - - - - - - - - - - - - - - - - - - - - - -|
  -p12-h15-p12-h14------------------------------------------------------|
  -----------------------13-15-13----------12---------------------------|
  -----------------12-14----------14-12-14----12~~~---------------------|
  ----------------------------------------------------------------------|
  ----------------------------------------------------------------------|
  ----------------------------------------------------------------------|


verse 4: (do chords of verse 1)

Nawawala,nagtatago
Naghahanap ng kaibigan
Nagtataka, nagtatanong
Kung kailan kami mapakikinggan

verse 5: (do chords of verse 1)

Kung gusto mo akong subukan
Bakit hindi mo subukan
Subukan mo akong pigilan
Subukan ninyo kami

(Repeat Chorus)

Coda: (do chords of Intro)

Kabataan...
Panahon...
Kabataan...
Ngayon na ang ating panahon

Legend:
 AH  -artificial harmonic
 b   -bend
 r   -release
 t   -tap
 PM  -palm muting
 h   -hammer-on
 p   -pull-off
 sl/ -slide, only the first note is struck
 /   -slide, both notes are struck
 ~   -vibrato

Comments? e-mail: gboblimar@hotmail.com

Help Rate This Tab by Voting Up or Down

Vote Up Vote Down
Rating: -1 +2

Other Songs Like This

x

Copyright © 2015