Song: Every Kinda People Bass

Band: Robert Palmer

Rating: -1 +1 Views: 377

Every Kind Of People




    

                                Robert Palmer

This is more of an interpretation than a transcription.  I designed it for me to play
singing.  Yes there is one run that is missing, but at least you'll know if the bots have
this from the ultimate-guitar site. I created it on GP5. so it's available in standard 
or MIDI.  If you have any requests or corrections contact me at my spammable
beatnixx2004(at)Yahoo(dot)com.

- Tyner



    

      E  Q    S S S S E  S S E     E  H        S S S S E
G||-----------------------------|-------------------------|
D||*----------------4------4----|------------------4-4----|
A||*------------4-6------6------|--------------4-6-----6--|
E||---2-------------------------|--2----------------------|


  E  Q    S S S S E  S S E     E  Q    S S S S S S S S E
----------------------------|-----------------------------|
----------------4------4----|----------------4-4---6---4--|
------------4-6------6------|------------4-6-----4---6----|
--2-------------------------|--2--------------------------|


  E  Q    E  S S S S S S E     E  Q    E  S E  S S E  S
----------------------------|---------------------------|
----------------------------|---------------------------|
---------------4-4-4-4-4-4--|---------------------------|
--2-------------------------|--2----------2------2------|


  E  Q    E  S S S S S S E     E  Q    S S S S S S S S E
----------------------------|-----------------------------|
----------------------------|----------------4-4---6---4--|
---------------4-4-4-4-4-4--|------------4-6-----4---6----|
--2-------------------------|--2--------------------------|


  E.  E.  E  S  E  E.  E     H        E.  S E  S S    E.  E.  E  S  E  E.  E
--------------------------|------------------------|--------------------------|
--4----------4-/6--4------|--4-----------------4---|--------------------------|
------4---6------------4--|---------------4-4----4-|--6-------6--6-/8--6---8--|
--------------------------|------------------------|------6-------------------|


  Q    Q    E.  S E  S S    E.  E.  E  S  E  E.  E     E.  E.  E  S  E  E.  E
-------------------------|--------------------------|--------------------------|
-------------------------|--------------------------|--------------------------|
--9----8----6--------6---|--2-------2--2/-4--2------|--2-------2--2/-4--2------|
----------------6-6----6-|------2----------------2--|------2----------------2--|


  Q    Q    Q    Q       Q    Q    Q    Q         E.  E.  E  S  E  E.  E
----------------------|-----------------------||--------------------------|
----------------------|--1----4----1---------*||--4-------4--4-/6--4------|
-------1----2----4----|-----------------2----*||------4----------------4--|
--4-------------------|-----------------------||--------------------------|


  E.  E.  E  S  E  E.  E     E.  E.  E  S  E  E.  E     Q    Q    E.  S E  S S
--------------------------|--------------------------|-------------------------|
--4-------4--4-/6--4------|--------------------------|-------------------------|
------4----------------4--|--6-------6--6-/8--6---8--|--9----8----6--------6---|
--------------------------|------6-------------------|----------------6-6----6-|


  E.  E.  E  S  E  E.  E     E.  E.  E  S  E  E.  E     Q    Q    Q    Q
--------------------------|--------------------------|----------------------|
--------------------------|--------------------------|----------------------|
--2-------2--2-/4--2------|--2-------2--2-/4--2------|-------1----2----4----|
------2----------------2--|------2----------------2--|--4-------------------|


  Q    Q    Q    Q
-----------------------||
--1----4----1---------*||
-----------------2----*||
-----------------------||


Duration Legend
---------------
W - whole
H - half
Q - quarter
E - 8th
S - 16th
T - 32nd
X - 64th
. - note dotted
|-n-|  - n-tuplets

Help Rate This Tab by Voting Up or Down

Vote Up Vote Down
Rating: -1 +1

Other Songs Like This

x

Copyright © 2015