Song: Lagi Mo Na Lang Akong Dinededma

Band: Rocksteddy
Composed By: Rocksteddy

Rating: -1 +1 Views: 62

txt for comment 09166705945 JP_magnus@yahoo.com.ph TY
fUll_meTalgitar

E|-/10-10----------------10-10---------------------------------------------|
B|--------10-10---7-8-10--------7-8/10-8-7-------------10br10--------------|
G|------------------------------------------11\9---7-7---------9-7-9-7-----|
D|---------------------------------------------------------------------9-7-|
A|-------------------------------------------------------------------------|
E|-------------------------------------------------------------------------|



    

E|----------- 14h17h19p17p14-----------------------------------------------|
B|----------14--------------15---------------------------------------------|
G|--------16------------------16-------------------------------------------|
D|------16--------------------- 16-----------------12----------------------|
A|-14-17--------------------------17-14-12-14-12-14------------------------|
E|-------------------------------------------------------------------------|
******very fast sweeping here****


NOTE: these are just my tips, i would advice to you to use just the very tip of your 
as much as possible to make the sound much quicker because these are very fast three notes 
string economy picking! (~_^)
E|-------------------------------------------------------------------------|
B|------------------------------------10-12-13-------12-13-15-12-14-15-----|
G|---------------9-11-12-------9-11-12--------9-11-12----------------------|
D|--------9-10-12-------9-10-12--------------------------------------------|
A|-9-10-12-----------------------------------------------------------------|
E|-------------------------------------------------------------------------|



    


E|-------------------------------------------------------------------------|
B|----------12-14-15-17-15-14----------------17b-17b-17-15-----------------|
G|-12-13-15-------------------17-15-13-17-17--------------14fb-14-12-14-12-|
D|-------------------------------------------------------------------------|
A|-------------------------------------------------------------------------|
E|-------------------------------------------------------------------------|

E|-------------------------------14h17t22p17p14----------------------------|
B|---------------------------------------------15---17fb-------------------|
G|-11-12-11------14-12-11-12-14-14---------------14------------------------|
D|---------12-14-----------------------------------------------------------|
A|-------------------------------------------------------------------------|
E|-------------------------------------------------------------------------|

View Albums that This Song Appears On...

  • Patipatotpanabla

    Genre: Pop/Rock Label: 12 Stone Album Duration: 19:37

    Release Date: 2007

Close panel

Help Rate This Tab by Voting Up or Down

Vote Up Vote Down
Rating: -1 +1

Other Songs Like This

x

Copyright © 2018