Song: Ghost Division Bass

Band: Sabaton

Rating: -1 +2 Views: 139

Sabaton - Ghost Divison
Tuning: Standard (4 String Bass)
Intro
G|---------|---------|---------|---------|
D|---------|---------|---------|---------|
A|---------|---------|---------|-5-5-----|
E|-7-7-7-7-|-7-7-7-7-|-7-7-7-7-|-----5-5~|
Vers
G|---------|---------|---------|---------|
D|---------|---------|---------|---------|
A|---------|---------|---------|---------|
E|-7-7-7-7-|-7-7-7-7-|-7-7-7-7-|-7-7-7-7-| play 2 times

G|---------|---------|---------|---------|
D|---------|---------|---------|---------|
A|-5-5-5-5-|---------|---------|---------|
E|---------|-5-5-5-5-|-3-3-3-3-|-5-5-5-5-|



    

G|---------|---------|---------|---------|
D|---------|---------|---------|---------|
A|---------|---------|---------|-5-5-----|
E|-7-7-7-7-|-7-7-7-7-|-7-7-7-7-|-----5-5-| play 2 times

G|---------|---------|---------|---------|
D|---------|---------|---------|---------|
A|---------|---------|---------|---------|
E|-7-7-7-7-|-7-7-7-7-|-7-7-7-7-|-7-7-7-7-| play 2 times

G|---------|---------|---------|---------|
D|---------|---------|---------|---------|
A|-5-5-5-5-|---------|---------|---------|
E|---------|-5-5-5-5-|-3-3-3-3-|-5-5-5-5-|



    

G|---------|---------|---------|
D|---------|---------|---------|
A|---------|---------|---------|
E|-3-3-3-3-|-3-3-3-3-|-22222222|
Chorus
G|---------|---------|---------|---------|
D|---------|---------|---------|---------|
A|---------|---------|---------|-5-5-----|
E|-7-7-7-7-|-7-7-7-7-|-7-7-7-7-|-----5-5-| play 4 times(let last note ring)
Play Vers

Play Chorus

Bridge
G|---------|---------|---------|--------|
D|---------|---------|---------|--------|
A|---------|---------|-7~~~~~~~|-5~~----|
E|-7~~~~~~~|-7~~~~~~~|---------|----5~~~|
Then there`s no bass, but you can play the chorus 1 time, or play the rhytm of the drums.
G|---------|---------|---------|---------|
D|---------|---------|---------|---------|
A|---------|---------|---------|-5-5-----|
E|-7-7-7-7-|-7-7-7-7-|-7-7-7-7-|-----5-5-|

G|---------|---------|---------|---------|
D|---------|---------|---------|---------|
A|---------|---------|---------|---------|
E|-7-7-7-7-|-7-7-7-7-|-7-7-7-7-|-7-7-7-7-| play 2 times

G|---------|---------|---------|---------|
D|---------|---------|---------|---------|
A|-5-5-5-5-|---------|---------|---------|
E|---------|-5-5-5-5-|-3-3-3-3-|-5-5-5-5-|

G|---------|---------|---------|
D|---------|---------|---------|
A|---------|---------|---------|
E|-3-3-3-3-|-3-3-3-3-|-22222222|
Chorus
G|---------|---------|---------|---------|
D|---------|---------|---------|---------|
A|---------|---------|---------|-5-5-----|
E|-7-7-7-7-|-7-7-7-7-|-7-7-7-7-|-----5-5-| play 3 times

G|---------|---------|---------|---------|
D|---------|---------|---------|---------|
A|---------|---------|---------|-5-5-----|
E|-7-7-7-7-|-7-7-7-7-|-7-7-7-7-|-----557-|

That`s all. Sorry my English is not so good, but I hope you understand what I wanted to show you

Close panel

Help Rate This Tab by Voting Up or Down

Vote Up Vote Down
Rating: -1 +2

Comments for This Music

  • William Brown

    Perfect :) i was able to master this is in 5 minutes lol Thanks for sharing this bass tab for an awesome song.

Other Songs Like This

x

Copyright © 2018