Song: Purple Heart

Band: Sabaton

Rating: -1 +1 Views: 98

Sabaton – Purple Heart  ( Tab by Service-Error ( circle_division@hotail.com ) )

www.sabaton.net



    

Tab   is not every where correct, but enjoy playing it.

Questions? Mail me!




    

Every Chors is a POWERCHORD!!

A	002210      A’s with a * play like this: 577655
B	224442
C#	335553
D	557775
E	022100       E’s with a * play like this: 779997
F#	244322
G#	466544





Intro:

E F# - AmE F# - AmE F#


E ---------------------------------------------------------------------------|
B ---------------------------------------------------------------------------|
G 6-6-7-7-7-6-4-4-—6-6-7-7-7-6-4--6-6-7-7-7-6-4-—6-6-7-7-7-6-9---------------|
D ---------------------------------------------------------------------------|
A ---------------------------------------------------------------------------|
E ---------------------------------------------------------------------------|



Verse

A E F#


E ---------------------------------------------------------------------------|
B ---------------------------------------------------------------------------|
G ---------------------------------------------------------------------------|
D ---------------------------------------------------------------------------|
A ---------------------------------------------------------------------------|
E 3-4-5-4-3------------------------------------------------------------------|

F# - E AmE F#



E ---------------------------------------------------------------------------|
B ---------------------------------------------------------------------------|
G ---------------------------------------------------------------------------|
D --------2-4----------------------------------------------------------------|
A 0-2-4-5--------------------------------------------------------------------|
E ---------------------------------------------------------------------------|

D E* – A G# - F# - E D C#


Chorus

C# - D A* – E   3x  Then you play    C#   D    C#





Verse


E F# - AmE F# - AmE F#



E ---------------------------------------------------------------------------|
B ---------------------------------------------------------------------------|
G 6-6-7-7-7-6-4-4-—6-6-7-7-7-6-4--6-6-7-7-7-6-4-—6-6-7-7-7-6-9---------------|
D ---------------------------------------------------------------------------|
A ---------------------------------------------------------------------------|
E ---------------------------------------------------------------------------|



F# - E A E F#


E ---------------------------------------------------------------------------|
B ---------------------------------------------------------------------------|
G ---------------------------------------------------------------------------|
D ---------------------------------------------------------------------------|
A ---------------------------------------------------------------------------|
E 3-4-5-4-3------------------------------------------------------------------|

F# - E AmE F#



E ---------------------------------------------------------------------------|
B ---------------------------------------------------------------------------|
G ---------------------------------------------------------------------------|
D --------2-4----------------------------------------------------------------|
A 0-2-4-5--------------------------------------------------------------------|
E ---------------------------------------------------------------------------|


D E* – A G# - F# - E D C#




Chorus

C# - D A* – E   3x   C#  D  C#





( I’m busy to tab the solo so you have to wait a bit longer )

Solo:

Guitar 2: F# - E D C#  after the solo hold F#



End :

C#   When the guitars come in again.

C# - D A* – E


E F# - AmE F# - AmE F#


Play that a few time and then hold on C#


E ---------------------------------------------------------------------------|
B ---------------------------------------------------------------------------|
G 6-6-7-7-7-6-4-4-—6-6-7-7-7-6-4--6-6-7-7-7-6-4-—6-6-7-7-7-6-4---------------|
D ---------------------------------------------------------------------------|
A ---------------------------------------------------------------------------|
E ---------------------------------------------------------------------------|


E ---------------------------------------------------------------------------|
B ---------------------------------------------------------------------------|
G 6-6-7-7-7-6-4-4-—6-6-7-7-7-6-4--6-6-7-7-7-6-4-—6-6-7-7-7-6-6---------------|
D ---------------------------------------------------------------------------|
A ---------------------------------------------------------------------------|
E ---------------------------------------------------------------------------|

C# - B C#

Close panel

Help Rate This Tab by Voting Up or Down

Vote Up Vote Down
Rating: -1 +1

Other Songs Like This

x

Copyright © 2018