Song: Alright Alright Bass

Band: Sahara Hotnights

Rating: -1 +1 Views: 209

Bass does not play intro. Bass comes in at the beginning of the verse.




    

Verse
G|----------------------|--------------------|
D|-10-10-10-10----------|-7-7-10-7--------7--|
A|-------------7-7-7-10-|------------7-10----|
E|----------------------|--------------------|

Intro to Chorus
G|----------------------|--------------------|
D|-10-10-10-10----------|-7------------------|
A|-------------7-7-7-10-|--------------------|
E|----------------------|--------------------|

Chorus
G|-----------------|-----------------|
D|-------------5-7-|-----------------|
A|---------7-7-----|-8-8-8-8---------|
E|-5-5-5-5---------|---------8-8-8-7-|



    

Outro from Chorus
G|-----------------|-----------------|-----------------|
D|-------------5-7-|-----------------|-----------------|
A|---------7-7-----|-8-8-8-8-8-8-8-8-|-8-8-8-8-8-8-8-8-|
E|-5-5-5-5---------|-----------------|-----------------|

Bridge
G|-----------------|
D|-7-7---7-----5-6-|
A|-----------7-----|
E|-----------------|

For the two choruses after the bridge its
G|---------------|---------------|---------------|-----------------------|
D|------------5-7|---------------|---------------|-----------------------|
A|--------7-7----|8-8-8-8-8-8-8-8|8-8-8-8-8-8-8-8|10-10-10-10-10-10-10-10|
E|5-5-5-5--------|---------------|---------------|-----------------------|

End with a rit. on
G|-----------------|
D|-----------------|
A|-----------------|
E|-5---------------|

Close panel

Help Rate This Tab by Voting Up or Down

Vote Up Vote Down
Rating: -1 +1

Other Songs Like This

x

Copyright © 2018