Song: Gannon

Band: Salt The Wound
Composed By: Salt the Wound

Rating: -1 +1 Views: 52

-----------------------------------------------------------------------------
			     Gannon INTRO by Salt the Wound
-----------------------------------------------------------------------------
Tabbed by: atreyufancurse
Email: lazydawg1@gmail.com

This is probably one of the best songs off of Carnal Repercussions.
This is just the intro, i don't have the rest.



    

Tuning: Drop A

e|--------------------------------------------------------------------------|
B|--------------------------------------------------------------------------|
G|--------------------------------------------------------------------------|
D|-------------------8--------8-10------10-12-------------------------------|
A|---------5----------8-8~--------10---------12~----------------------------|
D|-000-000---0-8p5-0-------00--------00-------------------------------------|

e|--------------------------------------------------------------------------|
B|--------------------------------------------------------------------------|
G|--------------------------------------------------------------------------|
D|-------------------8------------------------------------------------------|
A|---------5----------8-8~---3--3-3-1/6\1-----------------------------------|
D|-000-000---0-8p5-0-------33-33-3



View Albums that This Song Appears On...

  • Carnal Repercussions

    Genre: Pop/Rock Label: Rotten Records Song Duration on Album: 2:38 Album Duration: 36:27

    Release Date: February 5, 2008

    Moods: Fierce, Hostile, Outraged, Sardonic, Volatile, Aggressive, Angry, Tense/Anxious, Brash, Dramatic, Messy, Rebellious, Trashy

    Styles: Alternative/Indie Rock, Hard Rock, Screamo

    Themes: Empowering, Freedom, Guys Night Out

Close panel

Help Rate This Tab by Voting Up or Down

Vote Up Vote Down
Rating: -1 +1

Other Songs Like This

x

Copyright © 2018