Song: David Danced Bass

Band: Salvador

Rating: -1 +1 Views: 244

Song: David Danced 
Artist: Salvador 

When the Spirit of the Lord 



    

Comes upon my heart 

I will dance like David danced
Repeat twice except for tab after the first bar.
g----------------|-----------------||
d----------------|-----------------||
a-------------7-7|--------5-8-7----||
e--5-5--5-5------|--5-7-8----------||

I will dance I will dance



    

I will dance like David danced

I will dance, I will dance 

I will dance like David danced
Repeat twice(this is the chorus)
g-----------------------------------||
d-----------------------------------||
a--------------10----8-7------------||
e-5-7-8-9-10-----8------------------||

I kept it simple but there

Help Rate This Tab by Voting Up or Down

Vote Up Vote Down
Rating: -1 +1

Other Songs Like This

x

Copyright © 2015