Song: Lie

Band: Saydie

Rating: -1 +1 Views: 111



    

																				Song tittle: Lie
Artist: Saydie
Tuning: Drop D

If you have any questions, suggestions or something on your mind 
mail me @ asstgtaugangsta5@gmail.com

Legend:
/ slide up
\ slide down
h hammer
p press



    


Intro:
Guitar 1
e--------------------------------------|
B--------------------------------------|
G--------------------------------------|
D-3-3----------------------------------|  (4x)
A-3-3----------------------------------|
D-3-3----------------------------------|
  F(Chord)

Guitar 2
e--------------------------------------|
B--------------------------------------|
G----5--5----2-2------3-----3---2p0----|
D-----------------3-3-3-3-3-3----------|
A--------------------------------------|
D--------------------------------------|

-Included in Intro also this is the Chorus
-Both guitar 1 and 2 sa part na to sabay mag iiba lang ung guitar 1 sa 2nd na      
ulit see below..

Guitar 2
e--------------------------------------------------------------------------|
B--------------------------------------------------------------------------|
G-------------5------7------9-/-10-\-9-9-9-/-10----------------------------|
D--3----------5------7------9-/-10-\-9-9-9-/-8----8-8-8-\--7-7-/-8-8-------|
A--3----------3------5------7-/-8--\-7-7-7-/-8----8-8-8-\--7-7-/-8-8-------|
D--3----------------------------------------------8-8-8-\--7-7-/-8-8-------|
   F          C      D      E   F    E       F    Bb       A     Bb


Guitar 2
e--------------------------------------------------------------------------|
B--------------------------------------------------------------------------|
G-------------5------7------9-/-10-\-9-9-9-/-10----------------------------|
D--3----------5------7------9-/-10-\-9-9-9-/-8----8-8-8-\--7-7-/-8-8-------|
A--3----------3------5------7-/-8--\-7-7-7-/-8----8-8-8-\--7-7-/-8-8-------|
D--3----------------------------------------------8-8-8-\--7-7-/-8-8-------|
   F          C      D      E   F    E       F    Bb       A     Bb


Guitar 1
e--------------------------------------------------------------------------|
B--------------------------------------------------------------------------|
G-------------5------7------9-/-10-\-9-9-9-/-10----------------------------|
D--3----------5------7------9-/-10-\-9-9-9-/-8----8-8-8-\--7-7-/-8-8-------|
A--3----------3------5------7-/-8--\-7-7-7-/-8----8-8-8-\--7-7-/-8-8-------|
D--3----------------------------------------------8-8-8-\--7-7-/-8-8-------|
   F          C      D      E   F    E       F    Bb       A     Bb



Guitar 1
e-----------------------------------------------------------------------------|
B-----------------------------------------------------------------------------|
G-----------------------------------------------------------------------------|
D-3-3-3-3-3-3-5-5-5--7-7-7-7-7-7-7-7-7-7-7-7-7-7-7\-3-3-3-3-3\-2-2-/-3-3------|
A-----------------------------------------------------------------------------|
D-----------------------------------------------------------------------------|
  F           C      D                              F          E     F

Verse:
Giutar 1
e--------------------------------------|
B--------------------------------------|
G--------------------------------------|
D-3-3----------------------------------|  (4x)
A-3-3----------------------------------|
D-3-3----------------------------------|
  F


Guitar 2
e--------------------------------------|
B--------------------------------------|
G----5--5----2-2------3-----3--2p0-----|  (4x)
D-----------------3-3-3-3-3-3----------|
A--------------------------------------|
D--------------------------------------|

Giutar 1
e--------------------------------------|
B--------------------------------------|
G--------------------------------------|
D-3-3--------3-3-3-------3-3-----------|  (4x)
A-3-3--------3-3-3-------3-3-----------|
D-3-3--------3-3-3-------3-3-----------|
  F


Guitar 2
e--------------------------------------|
B--------------------------------------|
G----5--5----2-2------3-----3--2p0-----|  (4x)
D-----------------3-3-3-3-3-3----------|
A--------------------------------------|
D--------------------------------------|

Then  Chorus same as above..
Then verse 2 same as verse 1
Then 2nd Chorus same as above..

Bridge:
Guitar 1
e------------------------------ -------------------------------------|
B----------------------------- --------------------------------------|
G---------------------------- ---------------------------------------|
D-3--3-3--------------------------3--3-3-----------------------------| 6x
A-3--3-3--------------------------3--3-3-----------------------------|
D-3--3-3--------------------------3--3-3-----------------------------|
  F                               F


Guitar 2
e--------------------------------------------------------------------|
B--------------------------------------------------------------------|
G--5---2--------------------------5---2----------3-----3p2-----------|
D---------3---5---3-3-3h5-3---------------3---5-----5------2---------| 6x
A--------------------------------------------------------------------|
D--------------------------------------------------------------------|


Then 3rd chorus Again..


Additional Riff Head Banging Part After 3rd Chorus

Guitar 1
e-----------------    ---------------------|
B-----------------    ---------------------|
G-----------------    ---------------------|
D-3-3/------6--5-- 3x -------------5*------|
A-3-3/------6--5--    ----6p5-6p5----------|
D-3-3/------6--5--    ---------------------|

Guitar 2
e-----------------    ---------------------|
B-----------------    ---------------------|
G-----------------    ---------------------|
D-3-3/------6--5-- 3x --------------5*-----|
A-3-3/------6--5--    ----6p5-6p5----------|
D-3-3/------6--5--    ---------------------|


Then Chorus again..

Outro:
Same as Chorus kaso my add ng konti guitar 1 continue doing chorus, guitar 2 sabay ka pa 
sa guitar 1 nag add ka lang nakita mo below yan gagawin mo same pa rin kau ng chords 
singit ka lang ..

Guitar 2
e---------------------------------------------------------------------|
B---------------------------------------------------------------------|
G----------5---2-----------2---------------5----2-----------3---------|
D-3-3-3-3---------3-3-3h5------5-5-5-5-------------3--3-3h5-----------|
A-3-3-3-3----------------------3-3-3-3--------------------------------|
D-3-3-3-3-------------------------------------------------------------|
     F                         C

Guitar 2
e---------------------------------------------------------------------|
B---------------------------------------------------------------------|
G----7------9-/-10-\-9-9-9-/-10---------------------------------------|
D---------------------------------8-8-8-\--7-7-/-8-8------------------|
A----5------7-/-8--\-7-7-7-/-8----8-8-8-\--7-7-/-8-8------------------|
D---------------------------------8-8-8-\--7-7-/-8-8------------------|
     D      E   F    E       E    Bb       A     Bb

Guitar 2
e---------------------------------------------------------------------|
B---------------------------------------------------------------------|
G----------5---2-----------2---------------5----2-----------3---------|
D-3-3-3-3---------3-3-3h5------5-5-5-5-------------3--3-3h5-----------|
A-3-3-3-3----------------------3-3-3-3--------------------------------|
D-3-3-3-3-------------------------------------------------------------|
  F                            C

Guitar 2 and Guitar 1
e---------------------------------------------------------------------|
B---------------------------------------------------------------------|
G----7------9-/-10-\-9-9-9-/-10---------------------------------------|
D----7------9-/-10-\-9-9-9-/-10---8-8-8---10-10\8-8-10-8-7--3---------|
A----5------7-/-8--\-7-7-7-/-8----8-8-8---10-10\8-8-10-8-7--3---------|
D---------------------------------8-8-8---10-10\8-8-10-8-7--3---------|
     D      E   F    E       F    Bb       C    Bb   C   A  F  (END)

Close panel

Help Rate This Tab by Voting Up or Down

Vote Up Vote Down
Rating: -1 +1

Other Songs Like This

x

Copyright © 2019