Song: England Skies

Band: Shake Shake Go

Rating: -0 +0 Views: 96

-------------------------------------------------------------------------------
                             ENGLAND SKIES - Shake Shake Go
-------------------------------------------------------------------------------
Tabbed by: LEO

Hi! This is my first tab so be nice please. This is not the entire song, I didn't have time to write the bridge
but I'll do it soon. I hope you'll enjoy as this is a great song ! https://www.youtube.com/watch?v=vAPP9udIsZc



    

Capo 3 for the original version. 

The entire song can be played with fingerpicking picking or you can switch to strumming in the chorus, as you 
like it !

Chords - G  : 355433
         G* : xx0033 ( not sure about this one )
         Am : x02210
         Em : 022000
         C  : x32010
         D  : xx0232



    

Fingerpicking : 

G :
e|---------------------------------------------------------------------------|
B|---------------------------------------------------------------------------|
G|-------------4----------------------4--------------------------------------|
D|-------5-----------5-----------5-----------5-------------------------------|
A|-----5---5-------5---5-------5---5-------5---5-----------------------------|
E|-3-----------------------3-------------------------------------------------|

Am :
e|---------------------------------------------------------------------------|
B|-------------1----------------------1--------------------------------------|
G|-------2-----------2-----------2-----------2-------------------------------|
D|-----2---2-------2---2-------2---2-------2---2-----------------------------|
A|-0-----------------------0-------------------------------------------------|
E|---------------------------------------------------------------------------|

Em :
e|---------------------------------------------------------------------------|
B|---------------------------------------------------------------------------|
G|-------------0----------------------0--------------------------------------|
D|-------2-----------2-----------2----------2--------------------------------|
A|-----2---2-------2---2-------2---2------2---2------------------------------|
E|-0-----------------------0-------------------------------------------------|

C :
e|---------------------------------------------------------------------------|
B|-------------1----------------------1--------------------------------------|
G|-------0-----------0-----------0-----------0-------------------------------|
D|-----2---2-------2---2-------2---2-------2---2-----------------------------|
A|-3-----------------------3-------------------------------------------------|
E|---------------------------------------------------------------------------|

D : ( same than G* but with different frets)
e|-------------2----------------------2--------------------------------------|
B|-------3-----------3-----------3-----------3-------------------------------|
G|-----2---2-------2---2-------2---2-------2---2-----------------------------|
D|-0-----------------------0-------------------------------------------------|
A|---------------------------------------------------------------------------|
E|---------------------------------------------------------------------------|

Intro : G x2

Verse :

 G                           Am
You're used to grey England Skies
                      Em
Cloudy days, colder nights
                      C
And your heart's not right
 
 G                             Am
Thought you'd be quite happy there
                      Em
In that warm NewYork air
                       C
But your heart's not right

Pre-chorus :

    Am (x2)                                                    
But if you sing along with me  
                              G*
Do you think you cold ever smile
Again?

 Am (x2)
If you sing this melody
                                  G*
Do you think you could laugh again
My friend?
      D 
Just try for me...

Chorus : (x2)
     G    Am   Em   C          
Sing Oh, oh, oh, oh, oh, oh, 

Verse : ( same as before )

Don't wait for England to chime
Not for your heart or mine
I know time is never kind

You miss your warm winter boots
Say the tea's not as good
But you'll be alright

Pre-chorus :

Everyone is going out in summer hats 
and colured T-shirts now

Take a walk around the pask
I know it will be better soon somehow
Just try for me

Chorus : 

Sing
Oh, oh, oh, oh, oh, oh, oh, oh, oh, oh, oh, oh, oh, oh, oh, oh, oh

Bridge : 

And I'll keep on waiting For you

Chorus : 
Oh, oh, oh, oh, oh, oh, oh, oh, oh, oh, oh, oh, oh, oh, oh, oh, oh

End : C (strum it)





************************************

Close panel

Help Rate This Tab by Voting Up or Down

Vote Up Vote Down
Rating: -0 +0

Other Songs Like This

x

Copyright © 2017