Song: Air

Band: Shawn Mendes
Composed By: Ido Zmishlany, Scott Harris, Shawn Mendes

Rating: -0 +0 Views: 994

-------------------------------------------------------------------------------
                             Air - Shawn Mendes
-------------------------------------------------------------------------------
Tabbed by: Shan




    

Tuning: standard 
        no capo
This is my first tab, so i hope it makes sense.

Verse: 

 Never thought that we would end up - here.....



    

e|-------------0-----------------------------0----|
B|--------1-------------------1---------1---------|
G|---2-------------------2---------2--------------| x8 
D|------------------3-----------------------------|
A|------------------------------------------------|
E|------------------------------------------------|

Chorus:

  Am                     D
  You, you don't mean no harm

                  F             Fm                     C
  Just trigger me along cause I don't have the time to spare

  Am                       D
  And i, im trying hard to breath

                          F
  But your suffocating me, this time

     Fm             C
  Im coming out for air


  A-a-a-a-a-air

e|-------------0-----------------------------0----|
B|--------1-------------------1---------1---------|
G|---2-------------------2---------2--------------| x2 
D|------------------3-----------------------------|
A|------------------------------------------------|
E|------------------------------------------------|


Verse:

 Always tryin to put your two sense in...

e|-------------0-----------------------------0----|
B|--------1-------------------1---------1---------|
G|---2-------------------2---------2--------------| x8 
D|------------------3-----------------------------|
A|------------------------------------------------|
E|------------------------------------------------|

Chorus:

  Am                     D
  You, you don't mean no harm

                  F             Fm                     C
  Just trigger me along cause I don't have the time to spare

  Am                       D
  And i, im trying hard to breath

                          F
  But your suffocating me, this time

     Fm             C
  Im coming out for air


  A-a-a-a-a-air

e|-------------0-----------------------------0----|
B|--------1-------------------1---------1---------|
G|---2-------------------2---------3--------------| x2 
D|------------------3-----------------------------|
A|------------------------------------------------|
E|------------------------------------------------|


 haven't figured out the bridge yet, but once i do i'll add it :)

View Albums that This Song Appears On...

  • Handwritten

    Genre: Pop/Rock Label: Virgin EMI Song Duration on Album: 3:14 Album Duration: 39:22

    Release Date: April 14, 2015

Close panel

Help Rate This Tab by Voting Up or Down

Vote Up Vote Down
Rating: -0 +0

Other Songs Like This

x

Copyright © 2017