Song: Ngayong Pasko

Band: Siakol

Rating: -1 +1 Views: 210



    

																				Ngayong Pasko
Artist: Siakol
Tabbed by: Richmond Pines
Tayabas, Quezon

Intro

        C		Em	 Dm		G

e------------------------------------------------------------------|
B---------8-----------8---6---5-----------5------------------------|
G-----5------5---4----------------7---5-------5---5---7------------|
D------------------------------------------------------------------|
A------------------------------------------------------------------|
E------------------------------------------------------------------|



    

         C		Em	Dm		G

e------------------------------------------------------------------|
B---------8-----------8---6---5------------------------------------|
G-----5------5---4----------------7---5---7------------------------|
D------------------------------------------------------------------|
A------------------------------------------------------------------|
E------------------------------------------------------------------|


Adlib: C

Close panel

Help Rate This Tab by Voting Up or Down

Vote Up Vote Down
Rating: -1 +1

Other Songs Like This

x

Copyright © 2019