Song: 14

Band: Silent Sanctuary

Rating: -1 +1 Views: 140

14
Silent Sanctuary
By: rakizta_ralph (fast_break20@yahoo.com)




    

INTRO: G-F#/G-E/G-C9-D


e|---------------------------------------------------------------------------|
B|---------------------------------------------------------------------------|
G|------5~-4~-----5~-4~-----5~-4~---------------5~-4~-----5~-4~-----5~-4~----|
D|--5/7-------5/7-------5/7-------5/7-5-4-5/7---------5/7-------5/7----------|
A|---------------------------------------------------------------------------|
E|---------------------------------------------------------------------------|

e|------------------------------------------------5-5-5----|
B|------------------------------------------------3-3-3----|
G|--------------5~-4~----5~-4-----5~-4~-----------2-2-2----|
D|--5/7-5-4-5/7------5/7------5/7-------5/7-5~----0-0-0----|
A|---------------------------------------------------------|
E|---------------------------------------------------------|



    

| /  slide up
| \  slide down
| h  hammer-on
| p  pull-off
| ~  vibrato

VERSE 1:
      G		    E/G  
Inaayos ko ang iyong isipan
C9                 D          
Ngunit hindi ka nakikinig
G			   E/G
Lahat na ng bagay ay aking ginawa ngunit
C9           D

Wala pa rin

REFRAIN1:
Em              Bm
Ilang beses ko bang sasabihin na
      G    F#/G        Em
Wala nang kwenta ang nakaraan
C9              Am     D

Pero iyong pinipilit

CHORUS:
       G            F#/G

Ikaw lang ang nais kong makasama
  E/G               C9       D

Wala na kong gusto pang balikan
         G            F#/G

Kahit ako’y papiliin ikaw ay umasa
    E/G         C9      D

Gusto kang makapiling

VERSE 2:
          G           E/G
Lagi na lang tayo nag-aaway
      C9              D

Kahit di dapat pag-awayan
          G            E/G
Tuwing ika’y lumuluha ako’y nasasaktan
    C9                D

Pag nakikita kang ganyan

REFRAIN 2:
      Em       Bm    G      F#/G    E/G

Sige na, tahan na, dahil mahal na mahal kita
            C9           Am     D

Ikaw lang kasi, maniwala ka


CHORUS:
       G            F#/G

Ikaw lang ang nais kong makasama
  E/G               C9       D

Wala na kong gusto pang balikan
         G            F#/G

Kahit ako’y papiliin ikaw ay umasa
    E/G         C9      D

Gusto kang makapiling


      C9        G

Pero bakit ganyan
     C9            Am
Tayo ay napaglalaruan
         C9            Am      D

Siguro nga’y sadyang ganyan



ADLIB: 3min:10sec   ---G-F#/G-E/G-C9-D---

e|-------------------------------------------------------------------------------------|
B|--------8~-------------8~------------------------------------------------------------|
G|--4-5-7----7\5-5-4-5/7----7\5-5-4-5p4----------------7---------4---------------------|
D|--------------------------------------5~-----5-7-7/9---9\7-5-7---7-5-----------5~----|
A|-----------------------------------------5h7-------------------------5/7-5-5h7-------|
E|-------------------------------------------------------------------------------------|

e|--------------------------------------------------------------------------------------
B|---------------------15/17-15~-13-12-13p12----------15b-15b-15b-15b-15b-15b-15b-15b---
G|--------12-14-14b-12-----------------------12-12h14-----------------------------------
D|--12h14-------------------------------------------------------------------------------
A|--------------------------------------------------------------------------------------
E|--------------------------------------------------------------------------------------


e|---------15-15-17-17-15-17-17/19----|
B|--15b-15----------------------------|
G|------------------------------------|
D|------------------------------------|
A|------------------------------------|
E|------------------------------------|

3min:47sec
e|-------------------------------------------------|
B|--------13~-12~-12-12\10----10/12~-12-10---------|
G|--12/14------------------12--------------12~-----|
D|-------------------------------------------------|
A|-------------------------------------------------|
E|-------------------------------------------------|


| /  slide up
| \  slide down
| h  hammer-on
| p  pull-off
| ~  vibrato
| b  bend


CHORUS:
       G            F#/G

Ikaw lang ang nais kong makasama
  E/G               C9       D

Wala na kong gusto pang balikan
         G            F#/G

Kahit ako’y papiliin ikaw ay umasa
    E/G         C9      D

Gusto kang makapiling



Em    D           C

Ibibigay ko ang lahat
Em       D                C

Pati na rin ang ‘yong pangarap
Em         D           C

Sasamahan kita kahit saan
       C    D

Kahit saan


CHORUS:
       G            F#/G

Ikaw lang ang nais kong makasama
  E/G               C9       D

Wala na kong gusto pang balikan
         G            F#/G

Kahit ako’y papiliin ikaw ay umasa
    E/G         C9      D

Gusto kang makapiling


GUITAR 1:
e|--------------------------------------|
B|--------------------------------------|
G|------5~-4~-----5~-4~-----5~-4~-------|
D|--5/7-------5/7-------5/7-------7~----|
A|--------------------------------------|
E|--------------------------------------|

GUITAR 2:
e|--------------------------------------|
B|--------13~-12~-------13~-14~---------|
G|--12h14---------12h14-----------------|
D|------------------------------14~-----|
A|--------------------------------------|
E|--------------------------------------|


**********************************END****************************************

Close panel

Help Rate This Tab by Voting Up or Down

Vote Up Vote Down
Rating: -1 +1

Other Songs Like This

x

Copyright © 2017